Entombment Of A Machine Bass Tab - JOB FOR A COWBOY






entombment of a machine by job for a cowboy

Drop-C (CGCF)

^ are bends

|--------------------------------------|
|--------------------------------------|     x4
|-----------------------3-4------------|
|1-1-4-4-1-1-3-3-0-0-----0-0-----------|


(0:07)
|-------------------------|
|-------------------------|     x8
|---------------5---------|
|4-7-6-7-7-6-7------------|

(0:21)

|--------------------|
|--------------------|
|--------------------|
|7-4-6-3-7-4-6-3-----|


(0:23)

|------------------------------|
|------------------------------|
|------------------------------|
|444444-111111-333333-0--------|

That sick scream comes next.


(0:26)

|------------------------------------------------------|
|------------------------------------------------------|     x4
|------------------------------------------------------|
|44444444-11111111-33333333-00000000-------------------|


(0:40)

|-------------------|
|-------------------|     x6
|-------------------|
|0---0-4-3-1--------|


(0:59)

|--------------------------------------|
|--------------------------------------|     x4
|--------------------------------------|
|0-4-3-1----0-4-3-1--000-000-----------|

(1:13)

|--------------------------------------------|
|--------------------------------------------|     x2
|-------5-------------------4----------------|
|5-7-8---8-7-5-7---4-6-7---7-6-4-6-----------|


(1:22)
Let each note ring

|-------|
|-------| x8
|-------|
|5^---0|


(1:47)

|----------------------------|
|----------------------------| x4
|111111111111-0000-0000|
|----------------------------|

(1:59)

|----------------------------|
|----------------------------| x4
|----------------------------|
|111111111111-0000-0000|


(2:11)

|----------------------------------------------------------------|
|----------------------------------------------------------------|     x4
|-------8-------9---------------------8-------9------------------|
|00000--00000--8-11-7-10--00000--00000---5---1--0----------------|


(2:32)

|---------------------------------------|
|---------------------------------------|     x2
|5---4h5p4---1h4p1---1h4----------------|
|---------------------------0000--------|


(2:39)

|-----------------------------------------|
|-----------------------------------------|     x4
|-----------------------------------------|
|5---4h5p4---1h4p1---1h4-0000-------------|


(2:52)

slide down from the 12th fret on your low E string
|-----------------------------------------------------------------|
|-----------------------------------------------------------------|    x2
|-----------------------------------------------------------------|
|0-0-1-000-4----0-1-0-4--5/----0-0-1-000-4---0-4-3-1--------------|

|------------|
|------------| x2
|------------|
|0-4-3-1-----|

(3:12)

|----------------------------------------------------------------|
|----------------------------------------------------------------|     x6
|----------------------------------------------------------------|
|5-4-888---5-4-888---8-7-11-11-11---8-7-11-11-11-----------------|






Like us on Facebook