Knee Deep (ver2) Tab - JOB FOR A COWBOY






                                 KNEE DEEP
                              Job For A Cowboy
                         (From The 2006 Album DOOM)


Transcribed by Jonathan Casper (confinedforever)

Gtr 1 - Tuning Drop C - (C G C F A D)

/ - SLIDE UP TO          h - HAMMER ON
 - SLIDE DOWN TO        p - PULL OF
~ - VIBRATO              * - PALM MUTE
" - TREMOLO PICKING     [] - ARTIFICAL HARMONIC





I TABBED THIS SONG IN DROP C BECUASE JFAC HAVE 2 RECORDINGS
OF THIS SONG ONE IN DROP D AND ONE IN DROP C SO HERE IT IS IN DROP C!!!




 GTR 1
|-------------------------------|
|-------------------------------|
|-------------------------------|
|----------h---------h----------| x4
|------h-3-6-----h-3-6----------|
|-0003-6----0003-6----00000000--|
  ***       ***       ********

GTR 2
|--------------------------------------------------|
|--------------------------------------------------|
|--------------------------------------------------|
|--------------------------------------------------|
|--------------------------------------------------|
|--0000000-------------------0000000------------0--|
   *******                   *******            *

 GTR 1
|-------------------------------|
|-------------------------------|
|-------------------------------|
|----------h---------h----------|
|------h-3-6-----h-3-6----------|
|-0003-6----0003-6----00000000--|
  ***       ***       ********
  GTR 2                             PLAY BOTH x4
|-------------------------------|
|-------------------------------|
|-------------------------------|
|----------h---------h----------| 
|------h-6-9-----h-6-9----------|
|-0006-9----0006-9----00000000--|
  ***       ***       ********

 GTR 1 & 2
|---------------------------------------------------------------|
|---------------------------------------------------------------|
|---------------------------------------------------------------|
|---------------------------------------------------------------|
|-0000000-0000000-0000--0000000-000----------14-15-17/19-19-19--|
|-0000000-0000000-0000--0000000-000-14-15-17--------------------|
  ******* ******* ****  ******* ***                      Both Sections x2

|---------------------------------------------------------------|
|---------------------------------------------------------------|
|---------------------------------------------------------------|
|-----------------------------------------------------14-17-17--|
|-0000000-0000000-0000--0000000-000----------14-15-17-----------|
|-0000000-0000000-0000--0000000-000-14-15-17--------------------|
  ******* ******* ****  ******* ***

 GTR 1 & 2
|-------------------------------|
|-------------------------------|
|-------------------------------|
|----------h---------h----------| x4
|------h-3-6-----h-3-6----------|
|-0003-6----0003-6----00000000--|
  ***       ***       ********

|---------------|
|---------------|
|---------------|
|---------------|
|-0--0--0-0-0-0-|
|-0--0--0-0-0-0-|
  *  *  * * * *


GTR 1
|-------------------------------------------------------|
|-------------------------------------------------------|
|-------------------------------------------------------|
|--------------------------------------------h-------h--|x4
|----333---------------------333---------h-3-6---h-3-6--|
|-000---666333000666999555000---666333-3-6-----3-6------|
  ***         ***         ***
                                        GTR 2
GTR 2 PLAYS SAME RHYTHM UNTIL THIS    |-----------------|
                        PART -------> |-----------------|
                                      |-----------------|
                                      |-------h-------h-|x4
                                      |---h-6-9---h-6-9-|
                                      |-6-9-----6-9-----|

 GTR 1 & 2
|------------------------------------------------------------|
|------------------------------------------------------------|
|------------------------------------------------------------|
|-0-0--5--6--3--0-0-6--9--5-----5--6--3-------------[6]GTR2--|
|-0-0--3--6--3--0-0-6--9--5-----3--6--3-------------[2]GTR1--|
|-0-0-----6--3--0-0-6--9--5-0-0----6--3-0-3-6-2-5-0----------|
  * *           * *         * *         * * * * * *
                                                      Both sections x2
GTR 1 & 2  
|--------------------------------------------------------------------|
|--------------------------------------------------------------------|
|--------------------------------------------------------------------|
|-0-0--5--6--3--0-0-6--9--5-----5--6--3-------------------h-------h--|
|-0-0--3--6--3--0-0-6--9--5-----3--6--3---------------h-3-6---h-3-6--|
|-0-0-----6--3--0-0-6--9--5-0-0----6--3-0-3-6-2-5-0-3-6-----3-6------|
 
                                                    GTR 2
 GTR 2 PLAYS SAME RHYTHM UNTIL THIS PART --------> |-----------------|
                                                   |-----------------|
                                                   |-----------------|
                                                   |-------h-------h-|
                                                   |---h-6-9---h-6-9-|
                                                   |-6-9-----6-9-----|


 GTR 1 & 2
|------------------------------------------------|
|------------------------------------------------|
|------------------------------------------------|
|--------------------h-----------------------h---| x2
|----3-3---3-3---3-3-6----3-3---3-3------h-3-6---|
|-0-0-0-0-0-0-0-0-0----0-0-0-0-0-0-0-0-3-6-------|
  * * * * * * * * *    * * * * * * * *          

 GTR 1 & 2
|--------------------------------------------------------------------|
|--------------------------------------------------------------------|
|--------------------------------------------------------------------|
|--------------------h-----------------------h--------------------h--|
|----6-6---6-6---6-6-9----6-6---6-6------h-6-9----6-6---6-6---6-6-9--|
|-0-0-0-0-0-0-0-0-0----0-0-0-0-0-0-0-0-6-9-----0-0-0-0-0-0-0-0-0-----|
  * * * * * * * * *    * * * * * * * *         * * * * * * * * *

|--------------------------------|
|--------------------------------|
|--------------------------------|
|-----------h---------h--------h-|
|-------h-6-9-----h-7-10---h-6-9-|
|-0-0-6-9-------7-10-----6-9-----|
  * * 

 GTR 1
|--------------------------------------------------------------------|
|--------------------------------------------------------------------|
|--------------------------------------------------------------------|
|--------------------h-----------------------h--------------------h--|
|----6-6---6-6---6-6-9----6-6---6-6------h-6-9----6-6---6-6---6-6-9--|
|-0-0-0-0-0-0-0-0-0----0-0-0-0-0-0-0-0-6-9-----0-0-0-0-0-0-0-0-0-----|
  * * * * * * * * *    * * * * * * * *         * * * * * * * * *
 GTR 2
|---------------------------------------------------------------------|
|---------------------------------------------------------------------|
|---------------------------------------------------------------------|
|--------------------h-----------------------h---------------------h--|
|----9-9---9-9---9-9-12---9-9---9-9------h-9-12--9-9---9-9---9-9-9-12-|
|-0-0-0-0-0-0-0-0-0----0-0-0-0-0-0-0-0-9-12-----0-0-0-0-0-0-0-0-0-----|
  * * * * * * * * *    * * * * * * * *         * * * * * * * * *

 GTR 1                             GTR 2                        
|--------------------------------|----------------------------------|
|--------------------------------|----------------------------------|
|--------------------------------|----------------------------------|
|-----------h---------h--------h-|------------h---------h--------h--| x3
|-------h-6-9-----h-7-10---h-6-9-|-------h-9-12----h-11-13---h-9-12-|
|-0-0-6-9-------7-10-----6-9-----|-0-0-9-12-----11-13-----9-12------|
  * *                             

 GTR 1
|---------------------------------------------|
|---------------------------------------------|
|---------------------------------------------|
|-----------h---------------------------------|
|-------h-6-9---h--7------h-6-----h--8--------|
|-0-0-6-9-----7-10---10/6-9---9/8-11---11-10--|
  * *

 GTR 1
|-----------|------------------------------------------|
|-----------|------------------------------------------|
|-----------|------------------------------------------|
|-----------|----------------------------------------h-|x3
|-00-00-0---|00-00-0-00-00-0-00-00-0---h--7------h-6-9-|
|-00-00-0---|00-00-0-00-00-0-00-00-0-7-10---10/6-9-----|
  ** ** *    ** ** * ** ** * ** ** * 


|--------------------|
|--------------------|
|--------------------|
|--------------------|
|-00-00-0----00-00-0-|
|-00-00-0----00-00-0-|
  ** ** *    ** ** *

 GTR 1                               GTR 2
|---------------------------------|-----------------------------------|
|---------------------------------|-----------------------------------|
|---------------------------------|-----------------------------------|
|---------------------------------|-----------------------------------|
|----h--7------h-6-----h--8-------|----h-10------h-9-------h-11-------|
|--7-10---10/6-9---9/8-11---11-10-|-10-13---13/9-12--12/11-14---14-13-|

 GTR 1 & 2
|-------------------------------------------|
|-------------------------------------------|
|-------------------------------------------|
|-----------------------------------------h-|
|-00-00-0-00-00-0-00-00-0---h--7------h-6-9-|
|-00-00-0-00-00-0-00-00-0-7-10---10-6-9-----|
  ** ** * ** ** * ** ** *
                                        Both Sections x4
 GTR 1 & 2
|------------------------------------------------|
|------------------------------------------------|
|------------------------------------------------|
|------------------------------------------------|
|-00-00-0-00-00-0----h-7------h-6-----h--8-------|
|-00-00-0-00-00-0-7-10---10/6-9---9/8-11---11-10-|
  ** ** * ** ** *

 GTR 1              GTR 2
|------------------|-----------------------|
|------------------|-----------------------|
|------------------|-----------------------|
|------------------|-----------------------| x8
|-----6-9-----7-10-|------10-13------11-14-|
|-6-9-----7-10-----|-10-13------11-14------|

 GTR 1
|------------------|
|------------------|
|------------------|
|------------------| x8
|-----6-9-----7-10-|
|-6-9-----7-10-----|

 GTR 2
|----------------------------------------------------------|
|----------------------------------------------------------|
|----------------------------------------------------------|
|----------------------------------------------------------| x2
|-0--0-0-0----0-0-0--0-0-0--0--0--0-0-0----0-0-0--0-0-0--0-|
|-0--0-0-0----0-0-0--0-0-0--0--0--0-0-0----0-0-0--0-0-0--0-|
  *  * * *    * * *  * * *  *  *  * * *    * * *  * * *  *

 GTR 1 
|--------------------------------------------------------|
|--------------------------------------------------------|
|--------------------------------------------------------|
|------------------------------------------------------h-|x4
|-0--000000000-------------0--000000000--h--7------h-6-9-|
|-0--000000000333666999555-0--0000000007-10---10/6-9-----|
  *  *********             *  *********

 GTR 1
|---------------------------------------------------------------------|
|---------------------------------------------------------------------|
|---------------------------------------------------------------------|
|---------------------------------------------------------------------| x6
|-----------77-----------------77---------------66-------------66-----|
|-7770771010--10107707770771010--101077066606699--9966066606699--9966-|
  *** **          ** *** **          ** *** **      ** *** **       

 GTR 2 (PLAY THIS THE 2ND TIME)
|------------------------------------------------------------------------|
|------------------------------------------------------------------------|
|------------------------------------------------------------------------|x4
|------------------------------------------------------------------------|
|------------------------------------------------------------------------|
|-77777777777777777666666666666666633333336666666666666677777777777777777|

 GTR 2 (THIS IS JUST AT THE END OF THE TREMELO BIT ABOVE)
|--------------------------------|
|--------------------------------|
|--------------------------------|
|--------------------------------|
|--------------------------------|
|-101010101010101099999999999999-|

 GTR 1 & 2
|--------------------------------------------------------------|
|--------------------------------------------------------------|
|--------------------------------------------------------------|
|--------------------------------------------------------------|x4
|---h--7------h--7------h--7----------h-6-----h-6-----h-6------|
|-7-10---10-7-10---10-7-10---10-7---6-9---6-9-6---6-9-6---9-6--|

 GTR 1 & 2
|---------------------------------------------------------------------|
|---------------------------------------------------------------------|
|---------------------------------------------------------------------|
|----------------------------------------------------------h--------h-|
|-00000000-0--0-00000000-0--0-00000000-0--0-00000000---h-7-10---h-6-9-|
|-00000000-0--0-00000000-0--0-00000000-0--0-00000000-7-10-----6-9-----|
  ******** *  * ******** *  * ******** *  * ********

 GTR 1 & 2 
|------------------------------------------|
|------------------------------------------|
|------------------------------------------|
|------------------------------h--------h--|x4
|-00000000-0--0-00000000---h-7-10---h-6-9--|
|-00000000-0--0-00000000-7-10-----6-9------|
  ******** *  * ********

|---------------|
|---------------|
|---------------|
|---------------|
|-00000000-0--0-|
|-00000000-0--0-|
  ******** *  *

END =] hope u like it tell me what u think!?
- jonathan








Like us on Facebook