Rising Tide Bass Tab - JOB FOR A COWBOY






The Rising Tide
By Job For A Cowboy

Tabbed By Cameron Crouse
___________________
Key -              |
                   |
% - Silence Note   |
H - Hammer On      |
P - Pull Off       |
T - Tremelo Pick   |
/ - Slide          |
___________________|


This is at the begining of the song and is played once.
f ----------------------------------|
c ----------------------------------|
g ----------------------------------|
c 0000%-----0000%-----0000~~~~~0000%|

Play one time.
f -----------|
c -----------|
g 00-55-00-44|
c -----------|

Play three times
f -----------------------|
c -----------------------|
g 00-55-00-55-00-55-88-44|
c -----------------------|

Play one time
f -----------------------------|
c -----------------------------|
g 00-55-00-55-5H8P5-4H7P4-1H4P1|
c -----------------------------|

Play one time
f -------------------------|
c -------------------------|
g -------------------------|
c 0~~~~~4~~~~~1~~~~~0~~~~~%|

Play five times
f -----------------------|
c -----------------------|
g ----5-----5-----4-----4|
c 8-5---8-5---7-4---7-4--|

Play one time (in the song guitar 1 plays this riff twice then guitar 2 and bass come in 
play the other two times with guitar one)
f ------------|
c ------------|
g ------------|
c 5-8-4-5-8-4%|

Play four times
f -------------------|
c -------------------|
g -------------------|
c 0000-4444-0000-3333|

Play four times
f -------------|
c -------------|
g -------------|
c 0000-4-0000-2|

Play one time
f ---------|
c ---------|
g ---------|
c 5-8-4-1~~|

Play four times
f -----------------------------------|
c -----------------------------------|
g -----------------------------------|
c 55555555-88888888-44444444-11111111|
  TTTTTTTT TTTTTTTT TTTTTTTT TTTTTTTT

Play four times
f -------|
c -------|
g -------|
c 5-8-4-1|

Play one time
f -----------------------------|
c -----------------------------|
g -----------------------------|
c 5-8-8-7-5-4-5-1b---0~~~~~~~~~|

Play one time
f ---------------|
c ---------------|
g ---------------|
c 000-000-000-000|
    Triplets

Play two times
f --------------------------|
c --------------------------|
g --------------------------|
c 0000000-88888888-5555-4444|

Play two times
f ---------------|  f -------|
c ---------------|  c -------|
g ---------------|  g -------|
c 000-000-000-000|  c 7-4-7-8|
     Triplets

Play two times
f ---------------------------------------|
c ---------------------------------------|
g ---------------------------------------|
c 000-000-000-000-000-000-000-000-000-000|
            Triplets

Play two times
f ---------------------------------------|
c ---------------------------------------|
g ----------------5H6-6H7----------------|
c 000-000-000-000---------000-000-000-000|
    Triplets                   Triplets

Play four times
f ----------------------|
c ----------------------|
g 00-5-8-7-0-4-0-5-8-7-3|
c ----------------------|

Play one time
f --------|
c --------|
g --------|
c 4-2-1-0%|

Play one time (little drum and bass solo thingy)
f -------------------|
c -------------10-9~~|
g -------------------|
c 0%-9/1-0~~~~~------|

Play three times
f -----------------------------------------------|
c ------------------------4-3-2-4-3-2-4-6-7-4-6-7|
g -----------------------------------------------|
c 4-3-2-4-3-2-4-6-7-4-6-7------------------------|

Play one time
f -----------------------------------------------|
c -----------------------------------------------|
g -----------------------------------------------|
c 4-3-2-4-3-2-4-6-7-4-6-7-7-6-5-7-6-5-6-8-9-6-8-9|

Play two times
f -------------------|
c -------------------|
g -------------------|
c 00000-0-1-00000-0-1|

Play four times
f -----------------| f ---------------|
c -----------------| c ---------------|
g ----------5P4-4P5| g ---------------|
c 00000-0-1--------| c 0-2H3-0-2H3-1-2|

Play once
f -----------------------|
c -----------------------|
g -----------------------|
c 0-1-3-0-4-3-1-3-0~~~~~~| Let ring until the end of the song

enjoy----------------------------->






Like us on Facebook