Suspended By The Throat (ver2) Bass Tab - JOB FOR A COWBOY






Intro

F|-------------------------|
C|-------------------------|
G|---5-7-8---4-5-4-4-4-----|
C|-0-------0---------------|
                                    x2
F|-----------------------------|
C|-----------------------------|
G|---5-7-8---------------------|
C|-0-------5-8-5-4-7-4-3-6-3-2-|

then


F|--------------|
C|--------------|
G|--------------|
C|------2-------|

F|------------------------|
C|------------------------|
G|--------------333---333-|
C|-0----0----222---222----|

F|---------------------------|
C|---------------------------|
G|-----------------333---333-|     x2
C|-000000000000-222---222----|

then

F|------------------------|
C|------------------------|
G|--------------333---333-|
C|-0----0~---222---222----|

Breakdown

x4
F|---------------------------|
C|---------------------------|
G|-----------------333---333-|
C|-000000000000-222---222----|
                      
then

F|-----------------------------------------------|
C|-----------------------------------------------|
G|-----------------------------------------------|    x4
C|-333333333333-666666555555-222222222222-320-320|

F|------------------|
C|------------------|
G|------------------|
C|-3-0-3--6--5--2---|

F|--------------------|
C|--------------------|
G|--------------------|
C|-303--6--5--202-----

F|---------------------------------------|
C|---------------------------------------|
G|----------------------------333---333--|
C|-00-000-0-0--0----000-0--222---222-----|

F|-------------------------------------------------|
C|-------------------------------------------------|
G|-------------------------------------333---333---|    x4
C|-000000-0--0-0-00-0-0-0--000000-0--222---222-----|

then

F|-----------------|
C|-----------------|
G|----575-454-575--|
C|-000-------------|

F|-----------------|
C|-----------------|
G|----575-454-575--|
C|-000-------------|
                               x2
F|-----------------|
C|-----------------|
G|----575-454-575--|
C|-555-------------|
                              
F|------------------|           
C|------------------|
G|-8-10-8-787-575-4-|    
C|------------------|

then
x2
F|--------------------|
C|--------------------|
G|-----------------4--|     
C|-000-000-555-222----|

then

F|----------------------------|
C|--------------------7-------|
G|------------------------454-|     
C|-000-000-000-000-000-000----|

x3
F|---------------------------------------------------|
C|-------------------------------------------7-------|
G|-----------------------------------------------454-|     
C|-000000000000-444444444444-222222222222-000-000----|

then

F|-------------------------|
C|----3-----------2--------|
G|--------343---------343--|     
C|-000-000-----000-000-----|

F|--------------|
C|--------------|
G|--------------|
C|------0-------|

F|------------------------------------------------------|
C|------------------------------------------------------|
G|---------------------------------------------------5--|     
C|-000000000000--------------000000000000-363-353-252---|
                                                              x2
F|-------------------------------------------------------|
C|-------------------------------------------------------|
G|----------------------------------------575-4----454-4-|     
C|-000000000000--------------000000000000----------------|

then

F|--------------------------------------------------------|
C|--------------------------------------------------------|
G|-------575-8--------787-10-------575-8-----101010---888-|     
C|-000000-------000000-------000000-------888------777----|

x3
F|----------|
C|----------|
G|----------|     
C|-00-000---|

then 

x3
F|-----------------|
C|-----------------|
G|----101010---888-|     
C|-888------777----|

F|--------------|
C|--------------|
G|--------------|
C|------0-------|

Ending
x6
F|------------------|
C|------------------|
G|-----------10-8-7-|
C|-0---6---8--------|

F|--------------|
C|--------------|
G|--------------|
C|------0~------|






Like us on Facebook