Suspended By The Throat Bass Tab - JOB FOR A COWBOY






Job For A Cowboy
Suspended By The Throat
Doom

Tabbed By: rudie_#1

Tuning: Drop C (C,G,C,F)

Intro
F|-------------------------|
C|-------------------------|
G|---5-7-8---5-7-8-7h8p7-4-|
C|-0-------0---------------|
                                          x2
F|-------------------------|
C|-------------------------|
G|---5-7-8-----------------|
C|-0-------5-7-8-7-5-7-5-4-|

Verse1 x2 BREAK then x4
F|------------------------|
C|------------------------|
G|----------222---222-----|
C|-00000000----3-----3----|

x4
F|-------------------------------------|
C|-------------------------------------|
G|-------------------------------------|
C|-33333333-6666-5555-22222222-321-321-|

x2
F|-----------|
C|-----------|
G|-----------|
C|-3--6-5-2--|

Breakdown1 x4
F|--------------------------------|
C|--------------------------------|
G|----------------------222--222--|
C|-000-0-000-000--000-0----3----3-|

Verse2

Play x3
F|-----------------------------|
C|-----------------------------|
G|---5h7---4h5---5h7-----------|
C|--0-----0----0---------------|

Then                                       X4

F|------------------------|
C|------------------------|
G|--8h10---7h8---5h7---4--|
C|------------------------|

x3
F|--------------------------------|
C|--------------------------------|
G|---5h7--4h5--1-------7----5h7-4-|
C|-0----------------00---00-------|

x1
F|--------------|
C|--------------|
G|----5---4h5-1-|
C|-00---00------|

BREAK!

breakdown2
|----------------------------------
|----------------------------------
|----------5p0-8p0-7p0-10p0-8p0-7p0
|-0000-0000------------------------

|---------------------|
|---------------------|
|----------------5-7-8|
|-0000-0000-5-7-8-----|

|------------------------------------
|------------------------------------
|------------------------------7---9-
|-0-0-0-0--0-0-0-0--0-0-0-0--88--77--

|--------------------------|
|--------------------------|
|---7---9---7---9---7---9--|
|-88--77--88--77--88--77--0|

Ending

x4
|------------------------------
|------------------------------
|--8-7-8--10-8-10--8-7-8-10-8-7
|-0------0-------0-------------

|-----------|
|-----------|
|-----------|
|-0~--------|

Enjoi
m/X_xm/






Like us on Facebook