The Rising Tide Tab - JOB FOR A COWBOY






Job For A Cowboy
The Rising Tide

Tabbed By:
Cameron Crouse

Tuning

C-G-C-F-A-D

Key:

T - Tremelo Pick
. - Palm Mute
H - Hammer On
P - Pull Off
# - Harmonic
* - Pinch Harmonic
~ - Let Ring
/ - Slide

Guitar One


   0:00   Play This Riff Three Times
d -------------------------|
a -------------------------|
f -------------------------|
c -------------------------|
g -------------------------|
c 0---5---0---5---0---5-8-4|
  T   T   T   T   T   T T T

          Play This Riff Once
d ---------------------------|
a ---------------------------|
f ---------------------------|
c ---------------------------|
g --------------00-555-00-555|
c 0---5---0---5--------------|
  T   T   T   T


      0:09   Play Three Times               Play One Time
d ----------------------------|    d -------------------------------|
a ----------------------------|    a -------------------------------|
f ----------------------------|    f -------------------------------|
c ----------------------------|    c -------------------------------|
g 00-555-00-555-00-555-888-444|    g 00-555-00-555-5H8P5-4H7P4-1H4P1|
c ----------------------------|    c -------------------------------|
  .. TTT .. TTT .. TTT TTT TTT       .. TTT .. TTT


      0:19  Play One Time
d ------------|
a ------------|
f ------------|
c ------------|
g 0~~~~3--1--0|
c 0~~~~3--1--0|
       .  .  .


      0:26
d ------------------------------------------------|
a ------------------------------------------------|
f ------------------------------------------------|
c ------------------------------------------------|
g --------555---------555---------444---------444-|
c 777-555-----777-555-----666-444-----666-444-----|
  TTT TTT TTT TTT TTT TTT TTT TTT TTT TTT TTT TTT


      0:32    Play Two Times
d --------------------------------|
a --------------------------------|
f --------------------------------|
c ------6-5-----------5-4---------|
g 3-4-5-----6-5-3-4-4-----5-4-3-4-|
c --------------------------------|
  T T T T T T T T T T T T T T T T
                . .           . .

   0:40 Play 3 Times      Play Once
d ------------|        d ----------|
a ------------|        a ----------|
f ------------|        f ----------|
c ------------|        c ----------|
g ------------|        g ----------|
c 555-888-444-|        c 555-888-4-|
  TTT TTT TTT            TTT TTT


      0:45      Play Four Times
d ----------------------------------|
a ----------------------------------|
f ----------------------------------|
c ----------------------------------|
g 00-12-8-00-12-13-00-11-7-00-11-12-|
c 00------00-------00------00-------|
  .. T  T .. T  T  .. T  T .. T  T


    1:05  Play Six Times
d ---------------------------------------------------------------|
a ---------------------------------------------------------------|
f ---------------------------------------------------------------|
c ---------------------------------------------------------------|
g ----5-------5-------5-------5-------4-------4-------4-------4--|
c 5-5---8-5-5---8-5-5---8-5-5---8-4-4---7-4-4---7-4-4---7-4-4---7|
  T T T T T T T T T T T T T T T T T T T T T T T T T T T T T T T T


        1:36  Play Five Times
d ---------|
a ---------|
f ---------|
c 5/8/4-4/1|
g ---------|
c 5/8/4-4/1|


       1:56 Play Once
d ------------------------|
a ------------------------|
f ------------------------|
c 5~~~~~8~~~--------------|
g ----------4-3-2~~~~0~~~~|
c 5~~~~~8~~~4-3-2~~~~0~~~~|  Hit The Open The Same Time As Guitar 2
            . . .

     2:10  Play Once
d ---------------|
a ---------------|
f ---------------|
c ---------------|
g 000-000-000-000|
c 000-000-000-000|
  ... ... ... ...
     Triplets


      2:14       Play Four Times
d --------------------------------------------------|
a --------------------------------------------------|
f --------------------------------------------------|
c ------------------------------------0-8-7---------|
g ---4-5-6-------4-5-6-3*----4-5-6----------8-7-4-3*|
c 00-------00-00----------00-------00---------------|
  ..       .. ..          ..


            2:37     Play Two Times
d --------------------------------------------------|
a --------------------------------------------------|
f --------------------------------------------------|
c ------------------------------------0-8-7---------|
g 000-000-000-000-000-000-000-000-000-------8-7-4-3*|
c 000-000-000-000-000-000-000-000-000---------------|
           Triplets

               2:54 Play Two Times
d ----------------------------------------------------|
a ----------------------------------------------------|
f ----------------------------------------------------|
c --------------------------------------0-8-7---------|
g 000-000-000-000-5H6H7-000-000-000-000-------8-7-4-3*|
c 000-000-000-000-------000-000-000-000---------------|
  ... ... ... ...       ... ... ... ...
                  Triplets


        3:00    Play Four Times
d -----------------------|
a -----------------------|
f -----------------------|
c -----------------------|
g 00-5-8-7-0-4-0-5-8-7-3*|
c -----------------------|
  ..       .   .


   3:10  Play Once
d -------|
a -------|
f -------|
c -------|
g -------|
c 4-3-1-0|
  . . . .
  T T T T


      3:29    Play 3 Times
d -----------------------------------------------|
a -----------------------------------------------|
f -----------------------------------------------|
c ------------------------4-3-2-4-3-2-4-6-7-4-6-7|
g -----------------------------------------------|
c 4-3-2-4-3-2-4-6-7-4-6-7------------------------|
  T T T T T T T T T T T T T T T T T T T T T T T T


         3:45 Play Once
d -----------------------------------------------------------------------|
a -----------------------------------------------------------------------|
f 11-10-9-11-10-9-11-13-14-11-13-14-14-13-12-14-13-12-14-16-17-14-16-17~~|
c -----------------------------------------------------------------------|
g -----------------------------------------------------------------------|
c -----------------------------------------------------------------------|
  T T T T T T T T T T T T T T T T T T T T T T T T T T T T T T T T T T T


      4:00   Three Times
d ----------|
a ----------|
f ----------|
c ----------|
g 000000-1-0|
c 000000-1-0|
  ...... . .

   Play Once
d --------|
a --------|
f --------|
c --------|
g 000000-1|
c 000000-1|
  ...... .


      4:06    Play Four Times
d -------------------------------------------------|
a -------------------------------------------------|
f ------------------7P6-6H7------------------------|
c -------------------------------------------------|
g 0000000---0000000-5P4-4H5-0000000-0-5P4-0-5P4-1/3|
c 0000000---0000000---------0000000-0-5P4-0-5P4-1/3|
  .......   .......         ....... .     .

     4:31 Play once
d ---------------------|
a ---------------------|
f ---------------------|
c ---------------------|
g 0-1-4-5-4-1-0000-0~~~|
c 0-1-4-5-4-1-0000-0~~~| Let Ring Until End Of Song
  . . . . . . ....
----------------------------------------------------------------------------


Guitar Two


   0:00
Play Twice      Play Once
d -----|     d --------------|
a -----|     a --------------|
f -----|     f --------------|
c -----|     c --------------|
g 0000-|     g 00000~~~~~0000|
c 0000-|     c 00000~~~-~0000|
  ....         ....      ....

   0:08 Play Once
d -----------------|
a -----------------|
f -----------------|
c -----------------|
g 00-5-5-5-00-4-4-4|
c -----------------|
  .. T T T .. T T T


   0:09  Play Three Times               Play Once
d ----------------------------|    d -------------------------------|
a ----------------------------|    a -------------------------------|
f ----------------------------|    f -------------------------------|
c 00-444-00-444-00-444-777-333|    c 00-444-00-444------------------|
g ----------------------------|    g --------------5H8P5-4H7P4-1H4P1|
c ----------------------------|    c -------------------------------|
  .. TTT .. TTT .. TTT TTT TTT       .. TTT .. TTT


 0:19  Play Once
d ------------|
a ------------|
f ------------|
c ------------|
g 0~~~~3--1--0|
c 0~~~~3--1--0|
       .  .  .

     0:26        Play Two Times
d ------------------------------------------------|
a ------------------------------------------------|
f ------------------------------------------------|
c ------------------------------------------------|
g --------555---------555---------444---------444-|
c 777-555-----777-555-----666-444-----666-444-----|
  TTT TTT TTT TTT TTT TTT TTT TTT TTT TTT TTT TTT


  0:32    Play Two Times
d --------------------------------|
a --------------------------------|
f --------------------------------|
c ------6-5-----------5-4---------|
g 3-4-5-----6-5-3-4-4-----5-4-3-4-|
c --------------------------------|
  T T T T T T T T T T T T T T T T
                . .           . .

  0:40   Play Three Times
d ------------|
a ------------|
f ------------|
c ------------|
g ------------|
c 555-888-444-|
  TTT TTT TTT

   Play Once
d ----------|
a ----------|
f ----------|
c ----------|
g ----------|
c 555-888-4-|
  TTT TTT


   0:45  Play Two Times
d ----------------------------------|
a ----------------------------------|
f ----------------------------------|
c ----------------------------------|
g 00-12-8-00-12-13-00-11-7-00-11-12-|
c 00------00-------00------00-------|
  .. T  T .. T  T  .. T  T .. T  T


   0:55 (Until 1:06)
d --------------------------------|
a --------------------------------|
f --------------------------------|
c ---10-7----10-11----9-6----9-10-|
g 00------00-------00-----00------|
c 00------00-------00-----00------|
  .. T T  .. T  T  .. T T .. T  T


  1:08  Play Once
d ------|
a ------|
f ------|
c 7#----|
g ------|
c ---3#-|


  1:11 Play Once
d ----------|
a ----------|
f ----------|
c ----------|
g 5-8-4-1---|
c 5-8-4-1-3*|


   1:16   Play Four Times
d -------------|
a -------------|
f -------------|
c -------------|
g -------------|
c 5---8---4---1|
  T   T   T   T
  .   .   .   .

  1:36  Play Five Times
d ----------|
a ----------|
f ----------|
c 8/12/7/4/1|
g ----------|
c 8/12/7/4/1|

       1:56 Play Once
d ----------------------------|
a ----------------------------|
f ----------------------------|
c 8~~~~~12~~~------8/4/1------|
g -----------4-3-2-------0~~~~|
c 8~~~~~12~~~4-3-2-8/4/1-0~~~~|
             . . .

    2:10  Play Once
d ---------------|
a ---------------|
f ---------------|
c ---------------|
g 000-000-000-000|
c 000-000-000-000|
  ... ... ... ...
     Triplets

    2:14  Play Two Times
d ------------------------|
a ------------------------|
f ------------------------|
c ------------------------|
g ------------------------|
c 0---------8---------5--4|
  .         .         .  .
  T         T         T  T

   2:26  Play Four Times
d ---------------|
a ---------------|
f ---------------|
c ---------------|
g 000-000-000-000|
c 000-000-000-000|
  ... ... ... ...
      Triplets

       2:37     Play Two Times
d --------------------------------------------------|
a --------------------------------------------------|
f --------------------------------------------------|
c ------------------------------------0-8-7---------|
g 000-000-000-000-000-000-000-000-000-------8-7-4-3*|
c 000-000-000-000-000-000-000-000-000---------------|
           Triplets

       2:54  Play Two Times
d ----------------------------------------------------|
a ----------------------------------------------------|
f ----------------------------------------------------|
c --------------------------------------0-8-7---------|
g 000-000-000-000-5H6H7-000-000-000-000-------8-7-4-3*|
c 000-000-000-000-------000-000-000-000---------------|
  ... ... ... ...       ... ... ... ...
                  Triplets


    3:00    Play Four Times
d -----------------------|
a -----------------------|
f -----------------------|
c -----7-6---------7-6---|
g 00-5-----0-4-0-5-----3*|
c -----------------------|
  ..       .   .


  3:10  Play Once
d -------|
a -------|
f -------|
c -------|
g -------|
c 4-3-1-0|
  . . . .
  T T T T


    3:29    Play 3 Times
d -----------------------------------------------|
a -----------------------------------------------|
f -----------------------------------------------|
c ------------------------4-3-2-4-3-2-4-6-7-4-6-7|
g -----------------------------------------------|
c 4-3-2-4-3-2-4-6-7-4-6-7------------------------|
  T T T T T T T T T T T T T T T T T T T T T T T T


     3:45 Play Once
d -----------------------------------------------------------------------|
a -----------------------------------------------------------------------|
f 11-10-9-11-10-9-11-13-14-11-13-14-14-13-12-14-13-12-14-16-17-14-16-17~~|
c -----------------------------------------------------------------------|
g -----------------------------------------------------------------------|
c -----------------------------------------------------------------------|
  T T T T T T T T T T T T T T T T T T T T T T T T T T T T T T T T T T T


      4:00   Three Times
d ----------|
a ----------|
f ----------|
c ----------|
g 000000-1-0|
c 000000-1-0|
  ...... . .


  Play Once
d --------|
a --------|
f --------|
c --------|
g 000000-1|
c 000000-1|
  ...... .


    4:06    Play Four Times
d -------------------------------------------------|
a -------------------------------------------------|
f ------------------7P6-6H7------------------------|
c -------------------------------------------------|
g 0000000---0000000-5P4-4H5-0000000-0-5P4-0-5P4-1/3|
c 0000000---0000000---------0000000-0-5P4-0-5P4-1/3|
  .......   .......         ....... .     .


    4:31 Play once
d ---------------------|
a ---------------------|
f ---------------------|
c ---------------------|
g 0-1-4-5-4-1-0000-0~~~|
c 0-1-4-5-4-1-0000-0~~~| Let Ring Until End Of Song
  . . . . . . ....


This is my first tab and I worked very hard on it, it took me three days to tab it. I 
it is pretty accurate. I hope you like it. Thanks






Like us on Facebook