What We Once Called Home Tab - JOB FOR A COWBOY






ITNRO
D---------------------------------------------------------------------------|
A---------------------------------------------------------------------------|
F---------------------------------------------------------------------------|
C-0-----------------0----------------0-------0~-----------------------------|
G-0-8-7-8-10-8-7-8--0-8-7-8-12-8-7-8-0-10-8--0~-----------------------------|
C-0-----------------0----------------0-------0~-----------------------------|
 PM*  tremolo      PM* temolo       PM* temolo ring

D----------------------------------------------------------------------x2---|
A---------------------------------------------------------------------------|
F---------------------------------------------------------------------------|
C---------------------------------------------------------------------------|
G-0-8-7-8-10-8-7-8----0-8-7-8-12-8-7-8-----0--10--0--8--0--7--0-5-3---------|
C---------------------------------------------------------------------------|
   tremolo picking
D---------------------------------------------------------------------------|
A---------------------------------------------------------------------------|
F---------------------------------------------------------------------------|
C-000-000-000-00------------------------------------------------------------|
G-000-000-000-00-5h7-4h5--------------9-10-12-10-9-10-----------------------|
C-000-000-000-00------------------------------------------------------------|
 Palm-muted tremolo (repeat as many times as necessary, on fourth one there is a pinch 
and I'm too lazy to find it or the bend just guess it)

CHORUS

D--------------------------------------------------------------------x2-----|
A---------------------------------------------------------------------------|
F-0-10-10-9-9-10/12-10-9-x2----6-7-9-x2-------------------------------------|
C---------------------------------------------------------------------------|
G----------------------------------------8-7-5--4-5-7-----------------------|
C---------------------------------------------------------------------------|
temolo picking                           Palm muted

D---------------------------------------------------------------------X2----|
A---------------------------------------------------------------------------|
F---------------------------------------------------------------------------|
C---------------------------------------------------------------------------|
G-0-88-77-8/10-8-7-X2-----5-7-8--X2----8-7-5--4-5-7-------------------------|
C---------------------------------------------------------------------------|
  temolo picking                       Palm muted-

D---------------------------------------------------------------------------|
A---------------------------------------------------------------------------|
F---------------------------------------------------------------------------|
C---------------------------------------------------------------------------|
G---8-10-12-14/-------------------------------------------------------------|
C---------------------------------------------------------------------------|
SECOND guitar does this during the second 0 8 7 8/10 87 thing

D = downstroke  U =Upstroke

OUTRO/END OF CHORUS THING
D---------------------------------------------------------------------------|
A---------------------------------------------------------------------------|
F---------------------x7----------------------------------------------------|
C-00-00-00-00--0-0-0-------00-00--3-2-1-2-1-0-------------------------------|
G-00-00-00-00--0-0-0-------00-00--3-2-1-2-1-0-------------------------------|
C-00-00-00-00--0-0-0-------00-00--3-2-1-2-1-0-------------------------------|
  DD DD DD DU  D D D     Palm muted
  palm muted


D---------------------------------------------------------------------------|
A---------------------------------------------------------------------------|
F---------------------------------------------------------------------------|
C-000-------000-------000----------000----------000-------000---------------|
G-000-5-5/8-000-5-5/8-000-10-10/8--000-12-12/10-000-5-5/8-000-5-5/8--10-5-8-|
C-000-------000-------000----------000----------000-------000---------------|
                                                                     tremolo

D---------------------------------------------------------------------------|
A---------------------------------------------------------------------------|
F---------------------------------------------------------------------------|
C--00-00--------------------------------------------------------------------|
G--00-00----------cool bass part 






Like us on Facebook