What A Wonderful World Bass Tab - Joey Ramone




-------------------------------------------------------------------------------
                  WHAT A WONDERFUL WORLD - JOEY RAMONE/RAMONES
-------------------------------------------------------------------------------

Tabbed By : MISFIT/666
e-mail: 

Tuning:STANDARD

G|-------------------------------------|
D|---(3)(3)----------------------------|(3) Note played by guitar
A|-------------(3)(3)------------------| 
E|1-1------1-1-------------------------|

          INTRO

G|----------------------------------------------------------------|
D|----------------------------------------------------------------|
A|----------------------------------------------------------------|
E|1-1-1-1-1-1-1-1-5-5-5-5-5-5-5-5-6-6-6-6-6-6-6-6-5-5-5-5-5-5-5-5-|

G|----------------------------------------------------------------|
D|----------------------------------------------------------------|
A|--------------------------------4-4-4-4-4-4-4-4-5-5-5-5-5-5-5-5-| 
E|3-3-3-3-3-3-3-3-1-1-1-1-1-1-1-1---------------------------------|

          VERSE

G|---------------------------------------------------------------------|
D|---------------------------------------------------------------------|
A|-4--------1---3---8-8-8-8-8-8-8-8-(x2)-7-7-7-7-7-7-7-7-(x2)----------|
E|---------------------------------------------------------------------|

           CHORUS 1

G|---------------------------------------------------------------------|
D|---------------------------------------------------------------------|
A|-4--------1---3---8-8-8-8-8-8-8-8-(x4)-------------------------------|
E|---------------------------------------------------------------------|

           CHORUS 2

G|------------------------------------------------------|
D|------------------------------------------------------|
A|-3---3----8---8----3---3---3---3-----1-----1----3--3--|
E|------------------------------------------------------|

           BRIDGE

G|------------------------------------------------------------|
D|------------------------------------------------------------|
A|-4--------(1---3---8---6---5)-(X3)------4------8--------8

ĂŽnscrie-te la newsletter


Join the ranks ! LIKE us on Facebook