Central Solo Tab - John Frusciante




-------------------------------------------------------------------------------
     Central (Solo)  John Frusciante
-------------------------------------------------------------------------------
Tabbed by: Andy
Email:

Tuning: standard

This part starts at 4:39 and goes over the chorus.
It gets drowned out near the end by the vocals and then sorta comes back around 5:22 but 
havent tabbed that part yet.
Most of the tps arent exactly tremolo picking but Im too lazy to count the number of 
he picks them.
The timing is all screwy so LISTEN TO THE SONG.

e|---------------------------------------------------------------------------|
B|------------------------------15b17-15b17r15p13------------------13-15-----|
G|-------14-12-14h16p14-12h14v----------------------14v-14tp--/14------------|
D|---------------------------------------------------------------------------|
A|---------------------------------------------------------------------------|
E|---------------------------------------------------------------------------|

e|-----------------15h17-----------------------------------------------------|
B|-15b17-13-13h15---------/16-14h16p14--/14tp--/14tp-14p12--/12h14tp--------|
G|---------------------------------------------------------------------------|
D|---------------------------------------------------------------------------|
A|---------------------------------------------------------------------------|
E|---------------------------------------------------------------------------|

e|---------15--15--15--15--15--15--1515h1719b21r19-17----------------------|
B|--/17tp----17--17--17--17--17--17--17--------------------------------------|
G|---------------------------------------------------------------------------|
D|---------------------------------------------------------------------------|
A|---------------------------------------------------------------------------|
E|---------------------------------------------------------------------------|
ĂŽnscrie-te la newsletter


Join the ranks ! LIKE us on Facebook