Helter Skelter Tab - John Frusciante




This is a cover of The Beatles song of the same name! =)

Intro:

-|-----0--(repeat)--------------------------------------------------|
-|--123--(repeat)--------------------------------------------------|
-|------------------------------------------------------------------|
-|------------------------------------------------------------------|
-|------------------------------------------------------------------|
-|------------------------------------------------------------------|
           When I get to the bottom I go back to the top of the

-|-----0--(repeat)--------------------------------------------------|
-|-----2--(repeat)--------------------------------------------------|
-|------------------------------------------------------------------|
-|------------------------------------------------------------------|
-|------------------------------------------------------------------|
-|------------------------------------------------------------------|
    slide, where I stop and I turn and I go for a

                                                  G
-|-----0--(repeat)--------------------------------------------------|
-|-----1--(repeat)--------------------------------------------------|
-|------------------------------------------------------------------|
-|------------------------------------------------------------------|
-|------------------------------------------------5--5--6--6--------|
-|------------------------------------------------3--3--3--3--------|
    ride, till I get to the bottom and I see you again.

                           E
-|------------------------------------------------------------------|
-|------------------------------------------------------------------|
-|------------------------------------------------------------------|
-|------------------------------------------------------------------|
-|--5--5--6---------6------2--2--2--2--32--2--2--2-----------------|
-|--3--3--3---------3------0--0--0--0--1
ĂŽnscrie-te la newsletter


Join the ranks ! LIKE us on Facebook