Apologise Tab - John Lee Hooker






  John Lee Hooker-Apologise

  INTRO                     x3
  e-0-----0---I--0--0--0--0---|I
  B-4/5---4/5-Io-4/55--3--0---|oI
  G-----------I---------------|I
  D-----------I---------------|I
  A-----------Io--------------|oI
  E-----------I---------------|I

  e---------------------------|
  B---------------------------|
  G-3-2-0h2-------------------|
  D---------2-----------------|
  A---------2---0-2-3b--------|
  E---------0-3---------------|
           l_lpm

  for the verses you play an E blues progression and/or improvise in an E blues          
              scale

ĂŽnscrie-te la newsletter


Like us on Facebook