Boogie Chillun Tab - John Lee Hooker






John Lee Hooker
Boogie Chillun
Tabbed by Gonseg

first part of intro and verse:
e||----------------------------3-----------|
B||--------------2-------------2-----------|
G||----2-2-2-2-2-2---2-2-2-2-2-2-----------|
D||----2-2-2-2-2-2---2-2-2-2-2-------------|
A||----------------------------------------|
E||----------------------------------------|

several times:
e||------------------13-----|
B||------------------35-----|
G||----2--2-2-2-2p0----------|
D||----2--2-2-2-2p0----------|
A||--------------------------|
E||--------------------------|


e||------------------13-3-3-3-3-3-3-3--1-0--|
B||------------------35-5-5-5-5-5-5-5--3-0--|
G||----2--2-2-2-2p0--------------------------|
D||----2--2-2-2-2p0--------------------------|
A||------------------------------------------|
E||------------------------------------------|

solo:
e||--1-3--3-3---8b-5-8b-5-5-5-5---8b-5-5--8b-5-5-5---|
B||--35--57---5--5-5--5-5-5-5---5--5-5--5--5-5-5---|
G||--------------------------------------------------|
D||--------------------------------------------------|
A||--------------------------------------------------|
E||--------------------------------------------------|


ĂŽnscrie-te la newsletter


Join the ranks ! LIKE us on Facebook