Boom Boom Boom Tab - John Lee Hooker






BOOM BOOM
As recorded by John Lee Hooker
(From the Album THIS IS HIP)

Words & Music by John Lee Hooker

Gtr I (E A D G B E) - 'John Lee Hooker clean electric'

Intro
 4/4
  Gtr I
  E a Q  E a E E E E   W          E E E E E E E E
|--------------------|----------|-----------------|
|--------4-4---------|----------|-----------------|
|---3S5----5S3-1-----|----------|-----1-4S3-1-----|
|----------------3---|-3--------|---3---------3---|
|------------------3-|----------|---------------3-|
|--------------------|----------|-----------------|


  W          E a Q  E a E E E E   H    E E E E
|----------|--------------------|---------------|
|----------|--------4---------1-|---------------|
|----------|---3S5----5S3-1-----|---------------|
|-3--------|----------------3---|---------------|
|----------|--------------------|-1-------------|
|----------|--------------------|------1---1----|


  E E E E E E E E   W          E a Q  E a E E E E
|-----------------|----------|---------------------|
|-----------------|----------|--------4------------|
|-----1-5S3-1-----|----------|---3S5----5S3-1-3-1--|
|---3---------3---|-3--------|---------------------|
|---------------3-|----------|---------------------|
|-----------------|----------|---------------------|


  W          E E E E E E E E   H    +Q.   E   E E Q  H
|----------|-----------------|------------1-|-1-----------*|
|----------|-----------------|------------1-|-1-----------*|
|-3--------|---------1-x-1-x-|--------------|-------------*|
|----------|-----1-3---------|-3----(3)-----|-------------*|
|----------|---3-------------|--------------|-------------*|
|----------|-----------------|--------------|-------------*|

ĂŽnscrie-te la newsletter


Like us on Facebook