Boom Boom Intro Tab - John Lee Hooker






!*CAPO 1st FRET*!

RESTS BETWEEN EACH RIFF FOR BAND RESPONSES
Riff 1
e|-------------------------------------------------------------------------|
B|-------------------------------------------------------------------------|
G|-2/4--4/2--0-------------------------------------------------------------|
D|---------------2---2-----------------------------------------------------|
A|-----------------2-------------------------------------------------------|
E|-------------------------------------------------------------------------|

BAND RESPONSE

Riff 2
e|-------------------------------------------------------------------------|
B|-------------------------------------------------------------------------|
G|-2/4--4/2--0-------------------------------------------------------------|
D|---------------2---2-----------------------------------------------------|
A|-----------------2-------------------------------------------------------|
E|-------------------------------------------------------------------------|

BAND RESPONSE

Riff 3
e|-------------------------------------------------------------------------|
B|-------------------------------------------------------------------------|
G|-2/4--4/2--0-------------------------------------------------------------|
D|--------------0----------------------------------------------------------|
A|----------------2-0------------------------------------------------------|
E|-------------------------------------------------------------------------|

BAND RESPONSE

!!REAPEAT RIFF 2!!

BAND RESPONSE

Riff 4
e|-------------------------------------------------------------------------|
B|-------------------------------------------------------------------------|
G|-2/4--4/2--0--0-2--0-2---------------------------------------------------|
D|-------------------------------------------------------------------------|
A|-------------------------------------------------------------------------|
E|-------------------------------------------------------------------------|

BAND RESPONSE

Riff 5
e|-------------------------------------------------------------------------|
B|-------------------------------------------------------------------------|
G|--------0--0-------------------------------------------------------------|
D|---0--2--2----2----------------------------------------------------------|
A|-2-----------------------------------------------------------------------|
E|-------------------------------------------------------------------------|

ĂŽnscrie-te la newsletter


Join the ranks ! LIKE us on Facebook