Dimples Intro (ver2) Tab - John Lee Hooker






e]------------------------|
b]------------------------|
g]---8b--8--6-------------|
d]-------------8--7--8----|
d]------------------------|
e]------------------------|

e]------------------------|
b]------------------------|
g]---8b--8--6-------------|
d]-------------8--7--8----|
d]------------------------|
e]------------------------|

JUST REPEAT THAT A BIT AND THAT IT RELY.

ĂŽnscrie-te la newsletter


Like us on Facebook