Dimples Intro Tab - John Lee Hooker






                                          JOHN LEE HOOKER

                                              DIMPLES

       ----------------------------------------------------------------|
       ----------------------------------------------------------------|
       ----2---0---2--0------------------------------------------------|
       ------------------2---0---2-------------------------------------|
       --------------------------------------2---5---2---5--5----------|
       -----------------------------3-s-4-------------------------0----|

       ----------------------------------------------------------------|
       ----------------------------------------------------------------|
       ----2---0---2--0------------------------------------------------|
       ------------------2---0---2-------------------------------------|
       --------------------------------------2---5---2---5--5----------|
       -----------------------------3-s-4-------------------------0----|


       ----------------------------------------------------------------|
       ----------------------------------------------------------------|
       ----2---0---2--0------------------------------------------------|
       ------------------2---0---2----------------2---5---2---5--5-----|
       ---------------------------------3-s-4--------------------------|
       -----------------------------------------------------------0----|


       ------------------------------------------------------------------|
       ------------------------------------------------------------------|
       --------0--2--0--2-0-2-------3-s-4--3-s-4----2--------0-2--0------|
       --0-h-2-------------------2----------------------0-h-2------2-0-2-|
       ------------------------------------------------------------------|
       ------------------------------------------------------------------|

ĂŽnscrie-te la newsletter


Join the ranks ! LIKE us on Facebook