One Bourbon One Scotch One Beer Bass Tab - John Lee Hooker






One Bourbon, One Scotch, One Beer - John Lee Hooker

intro
   (x4)         (x2)         (x2)
G|------------|------------|------------|---------------------------------------------|
D|------------|---2-23-34-5|------------|-----------------------------------5--------3|
A|---2-23-34-5|3-3---------|---2-23-34-5|5--3-45----3-----3--1-----2-23-34-5---3-45---|
E|3-3---------|------------|3-3---------|--------3-----3-3------3-3-------------------|

verse
   (x4)         (x2)         (x2)
G|------------|------------|------------|-------3h5-----------1h3---------------------------|
D|------------|---2-23-34-5|------------|----4-5---53h5----2-3---31h3-------------5--------3|
A|---2-23-34-5|3-3---------|---2-23-34-5|5--5----------53-3----------3---2-23-34-5---3-45---|
E|3-3---------|------------|3-3---------|-----------------------------3-3-------------------|

tabbed by Achilles (blue_sincere@hotmail.com)

ĂŽnscrie-te la newsletter


Join the ranks ! LIKE us on Facebook