Happy Xmas War Is Over Tab - John Lennon






Happy Xmas(War is Over) - JOhn Lennon
The most meaningful Christmas song ever

There are many accurate tab for this song. But I have noticed that
the ending "war is over, if you want it..." is not really correct.
So here is what I reckon is the correct one.


Happy Xmas(War is Over) - Tabbed by LennonsDisciple
Any questions? nhanngo123@gmail.com
Check me out on youtube - LennonsDisciple(A humble and modest Vietnamese Genius.
and The most accurate amateur tabber on earth)


Listen to the record for strumming pattern


 [Verse 1]

    So this is Christmas                   And  what have you done
E|--------------0--0----0--0---0-0---0--0|---------------------2--2---2--2---2--2---2--2--|
B|--------------2--2----0--0---3-3---2--2|---------------------3--3---2--2---5--5---3--3--|
G|--------------2--2----2--2---2-2---2--2|---------------------4--4---4--4---4--4---4--4--|
D|--------------2--2----2--2---2-2---2--2|---------------------4--4---4--4---4--4---4--4--|
A|--------------0--0----0--0---0-0---0--0|---------------------2--2---2--2---2--2---2--2--|
E|---------------------------------------|------------------------------------------------|


    Another year over                          A new one just begun
E|--------------0--0----0--0---0-0---0--0|---------------------0--0---0--0---0--0---0--0--|
B|--------------0--0----0--0---0-0---0--0|---------------------2--2---0--0---3--3---2--2--|
G|--------------2--2----1--1---1-1---1--1|---------------------2--2---2--2---2--2---2--2--|
D|--------------2--2----2--2---4-4---2--2|---------------------2--2---2--2---2--2---2--2--|
A|--------------2--2----2--2---2-2---2--2|---------------------0--0---0--0---0--0---0--0--|
E|---------------------------------------|------------------------------------------------|


 And so this is Christmas                   I   hope   you  have fun
E|--------------2--2----0--0---3-3---2--2|---------------------0--0---0--0---2--2---0--0--|
B|--------------3--3----3--3---3-3---3--3|---------------------0--0---4--4---4--4---0--0--|
G|--------------2--2----2--2---2-2---2--2|---------------------0--0---4--4---4--4---0--0--|
D|--------------0--0----0--0---0-0---0--0|---------------------2--2---4--4---4--4---2--2--|
A|---------------------------------------|---------------------2--2---2--2---2--2---2--2--|
E|---------------------------------------|------------------------------------------------|


The near and the dear ones                  The old and the young
E|--------------0--0----0--0---0-0---0--0|---------------------2--2---0--0---3--3---2--2--|
B|--------------3--3----2--2---0-0---2--2|---------------------3--3---3--3---3--3---3--3--|
G|--------------2--2----2--2---2-2---2--2|---------------------2--2---2--2---2--2---2--2--|
D|--------------2--2----2--2---2-2---2--2|---------------------0--0---0--0---0--0---0--0--|
A|--------------0--0----0--0---0-0---0--0|------------------------------------------------|
E|---------------------------------------|------------------------------------------------|

[Chorus] - just Chords


     [D]A      merry          merry        [G]Christmas

     [G]And   a happy        New            [A]Year

     [A]Let's  hope it's     a good         [Em]one

     [G]Without      any          [D]fear

     [E] chord leads to Verse 2 .........


 [Verse 2]

 And so this is Christmas                   For weak and for strong
E|--------------0--0----0--0---0-0---0--0|---------------------2--2---2--2---2--2---2--2--|
B|--------------2--2----0--0---3-3---2--2|---------------------3--3---2--2---5--5---3--3--|

exactly like in [Verse 1]
D|--------------2--2----2--2---2-2---2--2|---------------------4--4---4--4---4--4---4--4--|
A|--------------0--0----0--0---0-0---0--0|---------------------2--2---2--2---2--2---2--2--|
E|---------------------------------------|------------------------------------------------|

ENDING
                       [Asus2]                          [Bsus2]
     [A]War  [E]is     ov  -   [A]ver [Bm]If   [F#]you     want   [Bm]it
E|----0--0----0--0------0-0-----0--0|--2--2----2--2-------2--2----2--2---------|
B|----2--2----0--0------0-0-----2--2|--3--3----2--2-------2--2----3--3---------|
G|----2--2----1--1------2-2-----2--2|--4--4----3--3-------4--4----4--4---------|
D|----2--2----2--2------2-2-----2--2|--4--4----4--4-------4--4----4--4---------|
A|----0--0----2--2------0-0-----0--0|--2--2----4--4-------2--2----2--2---------|
E|----------------------------------|----------2--2----------------------------|

    [?]War   [E]is [Esus4]ov[E] - ver    N...O[A]. w.[E]..[Asus2] [A]now...
E|----0--0----0--0-----0-0-------0--0|--------0--0---0--0---0--0---0--0--|
B|----0--0----0--0-----0-0-------0--0|--------2--2---0--0---0--0---2--2--|
G|----2--2----1--1-----1-1-------1--1|--------2--2---1--1---2--2---2--2--|
D|----2--2----2--2-----4-4-------2--2|--------2--2---2--2---2--2---2--2--|
A|----2--2----2--2-----2-2-------2--2|--------0--0---2--2---0--0---0--0--|
E|-----------------------------------|-----------------------------------|


If you want to be cool like me(this is not the lyrics!) it's me communicating to ya.. If 
want
to be cool like me and stand out from the rest.. then play this next Ending to finish 
song off.

                       [Dsus2]                           [B]
     [D]War [Ddim]is     ov  - [D]ver [Em]If  [Bsus]you    want   [Em]it
E|----2--2----2--2------0-0-----2--2|--0--0----0--0-------2--2----0--0---------|
B|----3--3----2--2------3-3-----3--3|--0--0----4--4-------4--4----0--0---------|
G|----2--2----2--2------2-2-----2--2|--0--0----4--4-------4--4----0--0---------|
D|----0--0----0--0------0-0-----0--0|--2--2----4--4-------4--4----2--2---------|
A|----------------------------------|--2--2----2--2-------2--2----2--2---------|
E|----------------------------------|------------------------------------------|

  [Asus4]War  [A]is [Asus2]ov - [A]ver  N...O[D].  w.[Ddim] [Dsus2] [D]now...
E|----0--0----0--0-----0-0-------0--0|--------2--2---2--2---0--0---2--2--|
B|----3--3----2--2-----0-0-------2--2|--------3--3---2--2---3--3---3--3--|
G|----2--2----2--2-----2-2-------2--2|--------2--2---2--2---2--2---2--2--|
D|----2--2----2--2-----2-2-------2--2|--------0--0---0--0---0--0---0--0--|
A|----0--0----0--0-----0-0-------0--0|-----------------------------------|
E|-----------------------------------|-----------------------------------|






Like us on Facebook