Love Tab - John Lennon






Guitar



     W                   W                   W                 
E||-------------------|-------------------|-------------------|
B||-------------------|-------------------|-------------------|
G||-------------------|-------------------|-------------------|
D||-------------------|-------------------|-------------------|
A||-------------------|-------------------|-------------------|
E||-------------------|-------------------|-------------------|


  W                   W                   W                   W                 
-------------------|-------------------|-------------------|-------------------|
-------------------|-------------------|-------------------|-------------------|
-------------------|-------------------|-------------------|-------------------|
-------------------|-------------------|-------------------|-------------------|
-------------------|-------------------|-------------------|-------------------|
-------------------|-------------------|-------------------|-------------------|


  W                   W                   W                   W                 
-------------------|-------------------|-------------------|-------------------|
-------------------|-------------------|-------------------|-------------------|
-------------------|-------------------|-------------------|-------------------|
-------------------|-------------------|-------------------|-------------------|
-------------------|-------------------|-------------------|-------------------|
-------------------|-------------------|-------------------|-------------------|


  E  E  E  E  E  E  E  E     E  E  E  E  E  E  E  E   
--2--2--2--2--2--2--2--2--|--2--2--2--2--2--2--2--2--|
--3--3--3--3--3--3--3--3--|--3--3--3--3--3--3--3--3--|
--2--2--2--2--2--2--2--2--|--2--2--2--2--2--2--2--2--|
--0--0--0--0--0--0--0--0--|--0--0--0--0--0--0--0--0--|
--------------------------|--------------------------|
--------------------------|--------------------------|


    E  E  E  E  E  E  E  E     E  E  E  E  E  E  E  E   
|---2--2--2--2--2--2--2--2--|--------------------------|
|---2--2--2--2--2--2--2--2--|--2--2--2--2--2--2--2--2--|
|*--2--2--2--2--2--2--2--2--|--1--1--1--1--1--1--1--1--|
|*--4--4--4--4--4--4--4--4--|--3--3--3--3--3--3--3--3--|
|---4--4--4--4--4--4--4--4--|--4--4--4--4--4--4--4--4--|
|---2--2--2--2--2--2--2--2--|--------------------------|


  E  E  E  E  E  E  E  E     E  E  E  E  E  E  E  E   
--2--2--2--2--2--2--2--2--|--2--2--2--2--2--2--2--2--|
--2--2--2--2--2--2--2--2--|--3--3--3--3--3--3--3--3--|
--2--2--2--2--2--2--2--2--|--2--2--2--2--2--2--2--2--|
--4--4--4--4--4--4--4--4--|--0--0--0--0--0--0--0--0--|
--4--4--4--4--4--4--4--4--|--------------------------|
--2--2--2--2--2--2--2--2--|--------------------------|


  E  E  E  E  E  E  E  E     E  E  E  E  E  E  E  E   
--3--3--3--3--3--3--3--3--|--3--3--3--3--3--3--3--3--|
--0--0--0--0--0--0--0--0--|--2--2--2--2--2--2--2--2--|
--0--0--0--0--0--0--0--0--|--2--2--2--2--2--2--2--2--|
--0--0--0--0--0--0--0--0--|--2--2--2--2--2--2--2--2--|
--2--2--2--2--2--2--2--2--|--0--0--0--0--0--0--0--0--|
--3--3--3--3--3--3--3--3--|--------------------------|


  E  E  E  E  E  E  E  E     E  E  E  E  E  E  E  E   
--2--2--2--2--2--2--2--2--|--2--2--2--2--2--2--2--2--|
--3--3--3--3--3--3--3--3--|--2--2--2--2--2--2--2--2--|
--2--2--2--2--2--2--2--2--|--2--2--2--2--2--2--2--2--|
--0--0--0--0--0--0--0--0--|--4--4--4--4--4--4--4--4--|
--------------------------|--4--4--4--4--4--4--4--4--|
--------------------------|--2--2--2--2--2--2--2--2--|


  E  E  E  E  E  E  E  E     E  E  E  E  E  E  E  E   
--0--0--0--0--0--0--0--0--|--0--0--0--0--0--0--0--0--|
--0--0--0--0--0--0--0--0--|--2--2--2--2--2--2--2--2--|
--0--0--0--0--0--0--0--0--|--0--0--0--0--0--0--0--0--|
--2--2--2--2--2--2--2--2--|--2--2--2--2--2--2--2--2--|
--2--2--2--2--2--2--2--2--|--0--0--0--0--0--0--0--0--|
--0--0--0--0--0--0--0--0--|--------------------------|


  E  E  E  E  E  E  E  E     E  E  E  E  E  E  E  E     
--2--2--2--2--2--2--2--2--|--2--2--2--2--2--2--2--2---||
--3--3--3--3--3--3--3--3--|--3--3--3--3--3--3--3--3---||
--2--2--2--2--2--2--2--2--|--2--2--2--2--2--2--2--2--*||
--0--0--0--0--0--0--0--0--|--0--0--0--0--0--0--0--0--*||
--------------------------|---------------------------||
--------------------------|---------------------------||


  E  E  E  E  E  E  E  E     E  E  E  E  E  E  E  E   
--1--1--1--1--1--1--1--1--|--3--3--3--3--3--3--3--3--|
--1--1--1--1--1--1--1--1--|--0--0--0--0--0--0--0--0--|
--2--2--2--2--2--2--2--2--|--0--0--0--0--0--0--0--0--|
--3--3--3--3--3--3--3--3--|--0--0--0--0--0--0--0--0--|
--3--3--3--3--3--3--3--3--|--2--2--2--2--2--2--2--2--|
--1--1--1--1--1--1--1--1--|--3--3--3--3--3--3--3--3--|


  E  E  E  E  E  E  E  E     E  E  E  E  E  E  E  E   
--2--2--2--2--2--2--2--2--|--2--2--2--2--2--2--2--2--|
--3--3--3--3--3--3--3--3--|--3--3--3--3--3--3--3--3--|
--2--2--2--2--2--2--2--2--|--2--2--2--2--2--2--2--2--|
--0--0--0--0--0--0--0--0--|--0--0--0--0--0--0--0--0--|
--------------------------|--------------------------|
--------------------------|--------------------------|


  E  E  E  E  E  E  E  E     E  E  E  E  E  E  E  E   
--0--0--0--0--0--0--0--0--|--------------------------|
--0--0--0--0--0--0--0--0--|--3--3--3--3--3--3--3--3--|
--0--0--0--0--0--0--0--0--|--0--0--0--0--0--0--0--0--|
--2--2--2--2--2--2--2--2--|--0--0--0--0--0--0--0--0--|
--2--2--2--2--2--2--2--2--|--2--2--2--2--2--2--2--2--|
--0--0--0--0--0--0--0--0--|--3--3--3--3--3--3--3--3--|


  E  E  E  E  E  E  E  E     E  E  E  E  E  E  E  E   
--2--2--2--2--2--2--2--2--|--2--2--2--2--2--2--2--2--|
--3--3--3--3--3--3--3--3--|--3--3--3--3--3--3--3--3--|
--2--2--2--2--2--2--2--2--|--2--2--2--2--2--2--2--2--|
--0--0--0--0--0--0--0--0--|--0--0--0--0--0--0--0--0--|
--------------------------|--------------------------|
--------------------------|--------------------------|


  E  E  E  E  E  E  E  E     E  E  E  E  E  E  E  E   
--2--2--2--2--2--2--2--2--|--------------------------|
--2--2--2--2--2--2--2--2--|--2--2--2--2--2--2--2--2--|
--2--2--2--2--2--2--2--2--|--1--1--1--1--1--1--1--1--|
--4--4--4--4--4--4--4--4--|--3--3--3--3--3--3--3--3--|
--4--4--4--4--4--4--4--4--|--4--4--4--4--4--4--4--4--|
--2--2--2--2--2--2--2--2--|--------------------------|


  E  E  E  E  E  E  E  E     E  E  E  E  E  E  E  E   
--2--2--2--2--2--2--2--2--|--2--2--2--2--2--2--2--2--|
--2--2--2--2--2--2--2--2--|--3--3--3--3--3--3--3--3--|
--2--2--2--2--2--2--2--2--|--2--2--2--2--2--2--2--2--|
--4--4--4--4--4--4--4--4--|--0--0--0--0--0--0--0--0--|
--4--4--4--4--4--4--4--4--|--------------------------|
--2--2--2--2--2--2--2--2--|--------------------------|


  E  E  E  E  E  E  E  E     E  E  E  E  E  E  E  E   
--3--3--3--3--3--3--3--3--|--3--3--3--3--3--3--3--3--|
--0--0--0--0--0--0--0--0--|--2--2--2--2--2--2--2--2--|
--0--0--0--0--0--0--0--0--|--2--2--2--2--2--2--2--2--|
--0--0--0--0--0--0--0--0--|--2--2--2--2--2--2--2--2--|
--2--2--2--2--2--2--2--2--|--0--0--0--0--0--0--0--0--|
--3--3--3--3--3--3--3--3--|--------------------------|


  E  E  E  E  E  E  E  E     E  E  E  E  E  E  E  E   
--2--2--2--2--2--2--2--2--|--2--2--2--2--2--2--2--2--|
--3--3--3--3--3--3--3--3--|--2--2--2--2--2--2--2--2--|
--2--2--2--2--2--2--2--2--|--2--2--2--2--2--2--2--2--|
--0--0--0--0--0--0--0--0--|--4--4--4--4--4--4--4--4--|
--------------------------|--4--4--4--4--4--4--4--4--|
--------------------------|--2--2--2--2--2--2--2--2--|


  E  E  E  E  E  E  E  E     E  E  E  E  E  E  E  E     H         
--0--0--0--0--0--0--0--0--|--0--0--0--0--0--0--0--0--|--2--------|
--0--0--0--0--0--0--0--0--|--2--2--2--2--2--2--2--2--|--3--------|
--0--0--0--0--0--0--0--0--|--0--0--0--0--0--0--0--0--|--2--------|
--2--2--2--2--2--2--2--2--|--2--2--2--2--2--2--2--2--|--0--------|
--2--2--2--2--2--2--2--2--|--0--0--0--0--0--0--0--0--|-----------|
--0--0--0--0--0--0--0--0--|--------------------------|-----------|


  H.              W                   W                   W                 
---------------|-------------------|-------------------|-------------------|
---------------|-------------------|-------------------|-------------------|
---------------|-------------------|-------------------|-------------------|
---------------|-------------------|-------------------|-------------------|
---------------|-------------------|-------------------|-------------------|
---------------|-------------------|-------------------|-------------------|


  W                   W                   W                   W                 
-------------------|-------------------|-------------------|-------------------|
-------------------|-------------------|-------------------|-------------------|
-------------------|-------------------|-------------------|-------------------|
-------------------|-------------------|-------------------|-------------------|
-------------------|-------------------|-------------------|-------------------|
-------------------|-------------------|-------------------|-------------------|


  W                   W                   W                   W                 
-------------------|-------------------|-------------------|-------------------|
-------------------|-------------------|-------------------|-------------------|
-------------------|-------------------|-------------------|-------------------|
-------------------|-------------------|-------------------|-------------------|
-------------------|-------------------|-------------------|-------------------|
-------------------|-------------------|-------------------|-------------------|


  W                  
-------------------||
-------------------||
-------------------||
-------------------||
-------------------||
-------------------||










Piano



     H        Q    Q       W                   H        Q    Q     
E||-----------2----5----|--9----------------|-----------7----9----|
B||---------------------|-------------------|---------------------|
G||---------------------|-------------------|---------------------|
D||---------------------|-------------------|---------------------|
A||---------------------|-------------------|---------------------|
E||---------------------|-------------------|---------------------|


  W                   H        Q    Q       Q     H.            
--5----------------|-----------5----7----|--9----10------------|
-------------------|---------------------|---------------------|
-------------------|---------------------|---------------------|
-------------------|---------------------|---------------------|
-------------------|---------------------|---------------------|
-------------------|---------------------|---------------------|


  H        Q    Q       W                   H        Q    Q     
-----------7----9----|--5----------------|-----------2----5----|
---------------------|-------------------|---------------------|
---------------------|-------------------|---------------------|
---------------------|-------------------|---------------------|
---------------------|-------------------|---------------------|
---------------------|-------------------|---------------------|


  Q     H.              H        Q    Q        W                 
--9----10------------|-----------7----9----|--10----------------|
---------------------|---------------------|--------------------|
---------------------|---------------------|--------------------|
---------------------|---------------------|--------------------|
---------------------|---------------------|--------------------|
---------------------|---------------------|--------------------|


  H        H             W                   W                 
--2--------5--------||--------------------|-------------------|
--------------------||--------------------|-------------------|
--------------------||*-------------------|-------------------|
--------------------||*-------------------|-------------------|
--------------------||--------------------|-------------------|
--------------------||--------------------|-------------------|


  W                   W                   W                   W                 
-------------------|-------------------|-------------------|-------------------|
-------------------|-------------------|-------------------|-------------------|
-------------------|-------------------|-------------------|-------------------|
-------------------|-------------------|-------------------|-------------------|
-------------------|-------------------|-------------------|-------------------|
-------------------|-------------------|-------------------|-------------------|


  W                   W                   W                   W                 
-------------------|-------------------|-------------------|-------------------|
-------------------|-------------------|-------------------|-------------------|
-------------------|-------------------|-------------------|-------------------|
-------------------|-------------------|-------------------|-------------------|
-------------------|-------------------|-------------------|-------------------|
-------------------|-------------------|-------------------|-------------------|


  W                   W                     W                 
-------------------|--------------------||-------------------|
-------------------|--------------------||-------------------|
-------------------|-------------------*||-------------------|
-------------------|-------------------*||-------------------|
-------------------|--------------------||-------------------|
-------------------|--------------------||-------------------|


  W                   W                   W                   W                 
-------------------|-------------------|-------------------|-------------------|
-------------------|-------------------|-------------------|-------------------|
-------------------|-------------------|-------------------|-------------------|
-------------------|-------------------|-------------------|-------------------|
-------------------|-------------------|-------------------|-------------------|
-------------------|-------------------|-------------------|-------------------|


  W                   W                   W                   W                 
-------------------|-------------------|-------------------|-------------------|
-------------------|-------------------|-------------------|-------------------|
-------------------|-------------------|-------------------|-------------------|
-------------------|-------------------|-------------------|-------------------|
-------------------|-------------------|-------------------|-------------------|
-------------------|-------------------|-------------------|-------------------|


  W                   W                   W                   W                 
-------------------|-------------------|-------------------|-------------------|
-------------------|-------------------|-------------------|-------------------|
-------------------|-------------------|-------------------|-------------------|
-------------------|-------------------|-------------------|-------------------|
-------------------|-------------------|-------------------|-------------------|
-------------------|-------------------|-------------------|-------------------|


  W                   W                   W                   W                 
-------------------|-------------------|-------------------|-------------------|
-------------------|-------------------|-------------------|-------------------|
-------------------|-------------------|-------------------|-------------------|
-------------------|-------------------|-------------------|-------------------|
-------------------|-------------------|-------------------|-------------------|
-------------------|-------------------|-------------------|-------------------|


  W                   H           Q    Q    Q       W                 
-------------------|-----------|-------2----5----|--9----------------|
-------------------|-----------|-----------------|-------------------|
-------------------|-----------|-----------------|-------------------|
-------------------|-----------|-----------------|-------------------|
-------------------|-----------|-----------------|-------------------|
-------------------|-----------|-----------------|-------------------|


  H        Q    Q       W                   H        Q    Q     
-----------7----9----|--5----------------|-----------5----7----|
---------------------|-------------------|---------------------|
---------------------|-------------------|---------------------|
---------------------|-------------------|---------------------|
---------------------|-------------------|---------------------|
---------------------|-------------------|---------------------|


  Q     H.              H        Q    Q       W                 
--9----10------------|-----------7----9----|--5----------------|
---------------------|---------------------|-------------------|
---------------------|---------------------|-------------------|
---------------------|---------------------|-------------------|
---------------------|---------------------|-------------------|
---------------------|---------------------|-------------------|


  H        Q    Q       Q     H.              H        Q    Q     
-----------2----5----|--9----10------------|-----------7----9----|
---------------------|---------------------|---------------------|
---------------------|---------------------|---------------------|
---------------------|---------------------|---------------------|
---------------------|---------------------|---------------------|
---------------------|---------------------|---------------------|


   W                   W                  
--10----------------|-------------------||
--------------------|-------------------||
--------------------|-------------------||
--------------------|-------------------||
--------------------|-------------------||
--------------------|-------------------||










Piano



     W                    E   E   E   E   E   E   E   E   
C||-------------------|------13------13------13------13--|
G||-------------------|----------14--------------14------|
D||-------------------|--16--------------16--------------|
A||-------------------|----------------------------------|
E||-------------------|----------------------------------|
B||-------------------|----------------------------------|


   E   E   E   E   E   E   E   E      E   E   E   E   E   E   E   E   
----------------------------------|------13------13------13------13--|
------13------13------13------13--|----------14--------------14------|
----------15--------------15------|--16--------------16--------------|
--16--------------16--------------|----------------------------------|
----------------------------------|----------------------------------|
----------------------------------|----------------------------------|


   E   E   E   E   E   E   E   E      E   E   E   E   E   E   E   E   
------13------13------13------13--|------14------14------14------14--|
----------14--------------14------|--12------16------12------16------|
--12--------------12--------------|----------------------------------|
----------------------------------|----------------------------------|
----------------------------------|----------------------------------|
----------------------------------|----------------------------------|


   E   E   E   E   E   E   E   E      E   E   E   E   E   E   E   E   
------16--13--16------16--13--16--|----------------------------------|
--14--------------14--------------|------14------14------14------14--|
----------------------------------|--12------16------12------16------|
----------------------------------|----------------------------------|
----------------------------------|----------------------------------|
----------------------------------|----------------------------------|


   E   E   E   E   E   E   E   E      E   E   E   E   E   E   E   E   
------13------13------13------13--|------14------14------14------14--|
----------14--------------14------|--12------16------12------16------|
--16--------------16--------------|----------------------------------|
----------------------------------|----------------------------------|
----------------------------------|----------------------------------|
----------------------------------|----------------------------------|


   E   E   E   E   E   E   E   E      E   E   E   E   E   E   E   E   
------16--13--16------16--13--16--|----------------------------------|
--14--------------14--------------|------14------14------14------14--|
----------------------------------|--12------16------12------16------|
----------------------------------|----------------------------------|
----------------------------------|----------------------------------|
----------------------------------|----------------------------------|


   E   E   E   E   E   E   E   E        E   E   E   E   E   E   E   E   
----------------------------------||-----------13--------------13---L--|
------14------14------14------14--||-----------14--------------14---L--|
--12------16------12------16------||*------16------16------16----------|
----------------------------------||*----------------------------------|
----------------------------------||---14---L---L---L--14---L---L--14--|
----------------------------------||-----------------------------------|


   E   E   Q     E   E   Q        E   E   Q     E   E   E   E   
------------------------------|----------13------------13---L--|
----------13------------13----|----------14------------14---L--|
----------15------------15----|------16------------16----------|
------16------------16--------|--------------------------------|
------------------------------|--14---L---L----14---L---L--14--|
--14---L---L----14---L---L----|--------------------------------|


   E   E   Q     E   E   Q        E   E   Q     E   E   E   E   
----------12------------12----|----------14------------14---L--|
----------14------------14----|------12--16--------12--16---L--|
------16------------16--------|--------------------------------|
------------------------------|--------------------------------|
------------------------------|--15---L---L----15---L---L--15--|
--15---L---L----15---L---L----|--------------------------------|


  Q     Q     Q     Q        E   E   Q     E   E   Q     
-------------------------|------------------------------|
--4-----4-----4-----4----|----------14------------14----|
--5-----5-----7-----L----|------12--16--------12--16----|
--9-----L----10----10----|------------------------------|
-------12----10----12----|------------------------------|
-------------------------|--15---L---L----15---L---L----|


   E   E   E   E   E   E   E   E      E   E   E   E   E   E   E   E   
--13------13---L---L------13------|----------14---L----------14---L--|
--14------14---L---L------14------|----------16---L----------16---L--|
------16--------------16------16--|------14--------------14----------|
----------------------------------|--------------14------------------|
--14---L---L--14--14---L---L--14--|--12---L---L------12---L---L--12--|
----------------------------------|----------------------------------|


   Q     Q     Q     E  E      E   E   Q     E   E   Q     
---------------------------|------------------------------|
---4-----4-----4-----4--L--|----------14------------14----|
---7-----L-----7-----L--7--|------12--16--------12--16----|
--11----11----11----11--L--|------------------------------|
--14----12----10----12--L--|------------------------------|
---------------------------|--15---L---L----15---L---L----|


   E   E   Q     E   E   Q          Q     E   E   Q     E   E   
-------------------------------||--------12---L---L----12---L--|
----------14------------14-----||--------14---L---L----14---L--|
------12--16--------12--16----*||--------15---L---L----15---L--|
------------------------------*||------------15------------15--|
-------------------------------||--13-----L------13-----L------|
--15---L---L----15---L---L-----||------------------------------|


   Q     E   E   Q     E   E      E   E   E   E   E   E   E   E   
--------14---L---L----14---L--|----------14---L----------14---L--|
--------16---L---L----16---L--|----------14---L----------14---L--|
--------17---L---L----17---L--|------16--------------16----------|
------------17------------17--|--------------12--------------12--|
--15-----L------15-----L------|----------------------------------|
------------------------------|--15---L---L------15---L---L------|


   E   E   Q     E   E   Q        Q     E   E   Q     E   E   
----------14------------14----|--------14---L---L----14---L--|
----------14------------14----|--------16---L---L----16---L--|
------16------------16--------|--------17---L---L----17---L--|
------------------------------|------------14------------14--|
------------------------------|--12-----L------12-----L------|
--15---L---L----15---L---L----|------------------------------|


   Q     Q     Q     Q        E   E   Q     E   Q     E   
--------14-----L----14----|----------14--------------16--|
--------16-----L----16----|----------14------------------|
--------17-----L----17----|------16------------16--------|
--------------------------|------------------------------|
--15-----L----15-----L----|------------------------------|
--------------------------|--15------------15------------|


   E   E   Q     E   E   Q        E   E   E   E   E   E   E   E   
--18------14------------14----|----------13--------------13---L--|
------------------------14----|----------14--------------14---L--|
------16------------16--------|------16------16------16----------|
------------------------------|----------------------------------|
------------------------------|--14---L---L---L--14---L---L--14--|
--15---L---L----15---L---L----|----------------------------------|


   E   E   Q     E   E   Q        E   E   Q     E   E   E   E   
------------------------------|----------13------------13---L--|
----------13------------13----|----------14------------14---L--|
----------15------------15----|------16------------16----------|
------16------------16--------|--------------------------------|
------------------------------|--14---L---L----14---L---L--14--|
--14---L---L----14---L---L----|--------------------------------|


   E   E   Q     E   E   Q        E   E   Q     E   E   E   E   
----------12------------12----|----------14------------14---L--|
----------14------------14----|------12--16--------12--16---L--|
------16------------16--------|--------------------------------|
------------------------------|--------------------------------|
------------------------------|--15---L---L----15---L---L--15--|
--15---L---L----15---L---L----|--------------------------------|


  Q     Q     Q     Q        E   E   Q     E   E   Q     
-------------------------|------------------------------|
--4-----4-----4-----4----|----------14------------14----|
--5-----5-----7-----L----|------12--16--------12--16----|
--9-----L----10----10----|------------------------------|
-------12----10----12----|------------------------------|
-------------------------|--15---L---L----15---L---L----|


   E   E   E   E   E   E   E   E      E   E   E   E   E   E   E   E   
--13------13---L---L------13------|----------14---L----------14---L--|
--14------14---L---L------14------|----------16---L----------16---L--|
------16--------------16------16--|------14--------------14----------|
----------------------------------|--------------14------------------|
--14---L---L--14--14---L---L--14--|--12---L---L------12---L---L--12--|
----------------------------------|----------------------------------|


   Q     Q     Q     E  E      H           H.            
---------------------------|------------|---------------|
---4-----4-----4-----4--L--|------------|---------------|
---7-----L-----7-----L--7--|------------|---------------|
--11----11----11----11--L--|------------|---------------|
--14----12----10----12--L--|------------|---------------|
---------------------------|--15--------|---------------|


   E   E   E   E   E   E   E   E      E   E   E   E   E   E   E   E   
------13------13------13------13--|----------------------------------|
----------14--------------14------|------13------13------13------13--|
--16--------------16--------------|----------15--------------15------|
----------------------------------|--16--------------16--------------|
----------------------------------|----------------------------------|
----------------------------------|----------------------------------|


   E   E   E   E   E   E   E   E      E   E   E   E   E   E   E   E   
------13------13------13------13--|----------------------------------|
----------14--------------14------|------14------14------14------14--|
--16--------------16--------------|--12------16------12------16------|
----------------------------------|----------------------------------|
----------------------------------|----------------------------------|
----------------------------------|----------------------------------|


   E   E   E   E   E   E   E   E      E   E   E   E   E   E   E   E   
------14------14------14------14--|------16--13--16------16--13--16--|
--12------16------12------16------|--14--------------14--------------|
----------------------------------|----------------------------------|
----------------------------------|----------------------------------|
----------------------------------|----------------------------------|
----------------------------------|----------------------------------|


   E   E   E   E   E   E   E   E      E   E   E   E   E   E   E   E   
----------------------------------|------13------13------13------13--|
------14------14------14------14--|----------14--------------14------|
--12------16------12------16------|--16--------------16--------------|
----------------------------------|----------------------------------|
----------------------------------|----------------------------------|
----------------------------------|----------------------------------|


   E   E   E   E   E   E   E   E      E   E   E   E   E   E   E   E   
------14------14------14------14--|------16--13--16------16--13--16--|
--12------16------12------16------|--14--------------14--------------|
----------------------------------|----------------------------------|
----------------------------------|----------------------------------|
----------------------------------|----------------------------------|
----------------------------------|----------------------------------|


   E   E   E   E   E   E   E   E      E   E   E   E  H          
----------------------------------|---------------------------||
------14------14------14------14--|------14------14-----------||
--12------16------12------16------|--12------16---------------||
----------------------------------|---------------------------||
----------------------------------|---------------------------||
----------------------------------|---------------------------||




Duration Legend
---------------
W - whole
H - half
Q - quarter
E - 8th
S - 16th
T - 32nd
X - 64th
. - note dotted
|-n-|  - n-tuplets


Tablature Legend
----------------
L - tied note
x - dead note
g - grace note
(n) - ghost note
> - accentuded note
NH - natural harmonic
AH - artificial harmonic
TH - tapped harmonic
SH - semi harmonic
PH - pitch harmonic
h - hammer on
p - pull off
b - bend
br - bendRelease
pb - preBend
pbr - preBendRelease
brb - bendReleaseBend
n/ - tremolo bar dip
n - tremolo bar dive
-/n - tremolo bar Release up
/n - tremolo bar inverted dip
/n - tremolo bar return
-n - tremolo bar Release down
S - shift slide
s - legato slide
/ -  slide into from below or out of upwards
 -  slide into from above or out of downwards
~ - vibrato
W - wide vibrato
tr - trill
TP - tremolo picking
T - tapping
S - slap
P - pop
< - fade in
^ - brush up
v - brush down

ĂŽnscrie-te la newsletter


Join the ranks ! LIKE us on Facebook