Nobody Told Me Tab - John Lennon






NOBODY TOLD ME


INTRO

Three, four!


   A6             A6add9                 D              D6       D
e|-2--------------2--------------------|-2--------------2--------2-----------|
B|-2--------------2--------------------|-3--------------3--------3-----------|
G|-2--------------4--------------------|-2--------------4--------2-----------|
D|-2--------------2--------------------|-0--------------0--------0-----------|
A|-0--------------0--------------------|-------------------------------------|
E|-------------------------------------|-------------------------------------|


   A6             A6add9                 D              D6       D
e|-2--------------2--------------------|-2--------------2--------2-----------|
B|-2--------------2--------------------|-3--------------3--------3-----------|
G|-2--------------4--------------------|-2--------------4--------2-----------|
D|-2--------------2--------------------|-0--------------0--------0-----------|
A|-0--------------0--------------------|-------------------------------------|
E|-------------------------------------|-------------------------------------|


VERSE


   A6             A6add9                 D              D6       D
e|-2--------------2--------------------|-2--------------2--------2-----------|
B|-2--------------2--------------------|-3--------------3--------3-----------|
G|-2--------------4--------------------|-2--------------4--------2-----------|
D|-2--------------2--------------------|-0--------------0--------0-----------|
A|-0--------------0--------------------|-------------------------------------|
E|-------------------------------------|-------------------------------------|


   A6             A6add9                 D              D6       D
e|-2--------------2--------------------|-2--------------2--------2-----------|
B|-2--------------2--------------------|-3--------------3--------3-----------|
G|-2--------------4--------------------|-2--------------4--------2-----------|
D|-2--------------2--------------------|-0--------------0--------0-----------|
A|-0--------------0--------------------|-------------------------------------|
E|-------------------------------------|-------------------------------------|


   A                 E                   D
e|-------------------0-----------------|-2-----------------|
B|-2-----------------0-----------------|-3-----------------|
G|-2-----------------1-----------------|-2-----------------|
D|-2-----------------2-----------------|-0-----------------|
A|-0-----------------2-----------------|-------------------|
E|-------------------0-----------------|----------------2--|


   Bm
e|-------------------------------------|-------------------------------------|
B|-3--------3--------3--------3--------|-3--------3--------3--------3--------|
G|-4--------4--------4--------4--------|-4--------4--------4--------4--------|
D|-4--------4--------4--------4--------|-4--------4--------4--------4--------|
A|-2--------2--------2--------2--------|-2--------2--------2--------2--------|
E|----------------2-----------------2--|----------------2-----------------2--|


VERSE


   A6             A6add9                 D              D6       D
e|-2--------------2--------------------|-2--------------2--------2-----------|
B|-2--------------2--------------------|-3--------------3--------3-----------|
G|-2--------------4--------------------|-2--------------4--------2-----------|
D|-2--------------2--------------------|-0--------------0--------0-----------|
A|-0--------------0--------------------|-------------------------------------|
E|-------------------------------------|-------------------------------------|


   A6             A6add9                 D              D6       D
e|-2--------------2--------------------|-2--------------2--------2-----------|
B|-2--------------2--------------------|-3--------------3--------3-----------|
G|-2--------------4--------------------|-2--------------4--------2-----------|
D|-2--------------2--------------------|-0--------------0--------0-----------|
A|-0--------------0--------------------|-------------------------------------|
E|-------------------------------------|-------------------------------------|


   A                 E                   D
e|-------------------0-----------------|-2-----------------|
B|-2-----------------0-----------------|-3-----------------|
G|-2-----------------1-----------------|-2-----------------|
D|-2-----------------2-----------------|-0-----------------|
A|-0-----------------2-----------------|-------------------|
E|-------------------0-----------------|-------------------|


   Bm
e|-------------------------------------|
B|-3-----------------------------------|
G|-4-----------------------------------|
D|-4-----------------------------------|
A|-2-----------------------------------|
E|-------------------------------------|


INTERLUDE


   N.C.
e|-------------------------------------|-------------------------------------|
B|-------------------------------------|-------------------------------------|
G|-------------------------------------|-------------------------------------|
D|-------------------------2-----------|-------2-----------------2-----------|
A|-2-----4--------5-----------2--------|-2--------------5-----------2--------|
E|-------------------------------------|-------------------------------------|



e|-------------------------------------|-------------------------------------|
B|-------------------------------------|-------------------------------------|
G|-------------------------------------|-------------------------------------|
D|-------------------------2-----------|----------2--------------2-----2--2--|
A|-2-----4--------5-----------2--------|----------------5--------------------|
E|-------------------------------------|-------------------------------------|


CHORUS


   G                 D                   Em
e|-3-----------------2-----------------|-7--------7--7--7--7--7--7--7--7--7--|
B|-3-----------------3-----------------|-8--------8--8--8--8--8--8--8--8--8--|
G|-4-----------------2-----------------|-9--------9--9--9--9--9--9--9--9--9--|
D|-5-----------------4-----------------|-9--------9--9--9--9--9--9--9--9--9--|
A|-5-----------------5-----------------|-7--------7--7--7--7--7--7--7--7--7--|
E|-3-----------------------------------|-------------------------------------|


   G                 D                   Em
e|-3-----------------2-----------------|-7--------7--7--7--7--7--7--7--7--7--|
B|-3-----------------3-----------------|-8--------8--8--8--8--8--8--8--8--8--|
G|-4-----------------2-----------------|-9--------9--9--9--9--9--9--9--9--9--|
D|-5-----------------4-----------------|-9--------9--9--9--9--9--9--9--9--9--|
A|-5-----------------5-----------------|-7--------7--7--7--7--7--7--7--7--7--|
E|-3-----------------------------------|-------------------------------------|


   G                 D                   Em
e|-3-----------------2-----------------|-7--------7--7--7--7--7--7--7--7--7--|
B|-3-----------------3-----------------|-8--------8--8--8--8--8--8--8--8--8--|
G|-4-----------------2-----------------|-9--------9--9--9--9--9--9--9--9--9--|
D|-5-----------------4-----------------|-9--------9--9--9--9--9--9--9--9--9--|
A|-5-----------------5-----------------|-7--------7--7--7--7--7--7--7--7--7--|
E|-3-----------------------------------|-------------------------------------|


   C                 G                   D
e|-0-----------------3-----------------|-2--------2-----2--2-----2-----------|
B|-1-----------------0-----------------|-3--------3-----3--3-----3-----------|
G|-0-----------------0-----------------|-2--------4-----2--4-----2-----------|
D|-2-----------------0-----------------|-0--------0-----0--0-----0-----------|
A|-3-----------------2-----------------|-------------------------------------|
E|-------------------3-----------------|-------------------------------------|


   C                 G
e|-0-----------------3-----------------|
B|-1-----------------0-----------------|
G|-0-----------------0-----------------|
D|-2-----------------0-----------------|
A|-3-----------------2-----------------|
E|-------------------3-----------------|


   A                 A9                  D                 D6
e|-0--------0--0--0--0--0--0--0--0--0--|-2--------2--2--2--2--2--2--2--2--2--|
B|-2--------2--2--2--0--0--0--0--0--0--|-3--------3--3--3--3--3--3--3--3--3--|
G|-2--------2--2--2--2--2--2--2--2--2--|-2--------2--2--2--4--4--4--4--4--4--|
D|-2--------2--2--2--2--2--2--2--2--2--|-0--------0--0--0--0--0--0--0--0--0--|
A|-0--------0--0--0--0--0--0--0--0--0--|-------------------------------------|
E|-------------------------------------|-------------------------------------|


   A                 A9                  D                 D6
e|-0--------0--0--0--3--3--3--3--3--3--|-2--2--2--2--2--2--2--2--2--2--2--2--|
B|-2--------2--2--2--0--0--0--0--0--0--|-3--3--3--3--3--3--3--3--3--3--3--3--|
G|-2--------2--2--2--2--2--2--2--2--2--|-2--2--2--2--2--2--4--4--4--4--4--4--|
D|-2--------2--2--2--2--2--2--2--2--2--|-0--0--0--0--0--0--0--0--0--0--0--0--|
A|-0--------0--0--0--0--0--0--0--0--0--|-------------------------------------|
E|-------------------------------------|-------------------------------------|


VERSE


   A6             A6add9                 D              D6       D
e|-2--------------2--------------------|-2--------------2--------2-----------|
B|-2--------------2--------------------|-3--------------3--------3-----------|
G|-2--------------4--------------------|-2--------------4--------2-----------|
D|-2--------------2--------------------|-0--------------0--------0-----------|
A|-0--------------0--------------------|-------------------------------------|
E|-------------------------------------|-------------------------------------|


   A6             A6add9                 D              D6       D
e|-2--------------2--------------------|-2--------------2--------2-----------|
B|-2--------------2--------------------|-3--------------3--------3-----------|
G|-2--------------4--------------------|-2--------------4--------2-----------|
D|-2--------------2--------------------|-0--------------0--------0-----------|
A|-0--------------0--------------------|-------------------------------------|
E|-------------------------------------|-------------------------------------|


   A                 E                   D
e|-------------------0-----------------|-2-----------------|
B|-2-----------------0-----------------|-3-----------------|
G|-2-----------------1-----------------|-2-----------------|
D|-2-----------------2-----------------|-0-----------------|
A|-0-----------------2-----------------|-------------------|
E|-------------------0-----------------|----------------2--|


   Bm
e|-------------------------------------|-------------------------------------|
B|-3--------3--------3--------3--------|-3--------3--------3--------3--------|
G|-4--------4--------4--------4--------|-4--------4--------4--------4--------|
D|-4--------4--------4--------4--------|-4--------4--------4--------4--------|
A|-2--------2--------2--------2--------|-2--------2--------2--------2--------|
E|----------------2-----------------2--|----------------2-----------------2--|


VERSE


   A6             A6add9                 D              D6       D
e|-2--------------2--------------------|-2--------------2--------2-----------|
B|-2--------------2--------------------|-3--------------3--------3-----------|
G|-2--------------4--------------------|-2--------------4--------2-----------|
D|-2--------------2--------------------|-0--------------0--------0-----------|
A|-0--------------0--------------------|-------------------------------------|
E|-------------------------------------|-------------------------------------|


   A6             A6add9                 D              D6       D
e|-2--------------2--------------------|-2--------------2--------2-----------|
B|-2--------------2--------------------|-3--------------3--------3-----------|
G|-2--------------4--------------------|-2--------------4--------2-----------|
D|-2--------------2--------------------|-0--------------0--------0-----------|
A|-0--------------0--------------------|-------------------------------------|
E|-------------------------------------|-------------------------------------|


   A                 E                   D
e|-------------------0-----------------|-2-----------------|
B|-2-----------------0-----------------|-3-----------------|
G|-2-----------------1-----------------|-2-----------------|
D|-2-----------------2-----------------|-0-----------------|
A|-0-----------------2-----------------|-------------------|
E|-------------------0-----------------|-------------------|


   Bm
e|-------------------------------------|
B|-3-----------------------------------|
G|-4-----------------------------------|
D|-4-----------------------------------|
A|-2-----------------------------------|
E|-------------------------------------|


INTERLUDE


   N.C.
e|-------------------------------------|-------------------------------------|
B|-------------------------------------|-------------------------------------|
G|-------------------------------------|-------------------------------------|
D|-------------------------2-----------|-------2-----------------2-----------|
A|-2-----4--------5-----------2--------|-2--------------5-----------2--------|
E|-------------------------------------|-------------------------------------|



e|-------------------------------------|-------------------------------------|
B|-------------------------------------|-------------------------------------|
G|-------------------------------------|-------------------------------------|
D|-------------------------2-----------|----------2--------------2-----2--2--|
A|-2-----4--------5-----------2--------|----------------5--------------------|
E|-------------------------------------|-------------------------------------|


CHORUS


   G                 D                   Em
e|-3-----------------2-----------------|-7--------7--7--7--7--7--7--7--7--7--|
B|-3-----------------3-----------------|-8--------8--8--8--8--8--8--8--8--8--|
G|-4-----------------2-----------------|-9--------9--9--9--9--9--9--9--9--9--|
D|-5-----------------4-----------------|-9--------9--9--9--9--9--9--9--9--9--|
A|-5-----------------5-----------------|-7--------7--7--7--7--7--7--7--7--7--|
E|-3-----------------------------------|-------------------------------------|


   G                 D                   Em
e|-3-----------------2-----------------|-7--------7--7--7--7--7--7--7--7--7--|
B|-3-----------------3-----------------|-8--------8--8--8--8--8--8--8--8--8--|
G|-4-----------------2-----------------|-9--------9--9--9--9--9--9--9--9--9--|
D|-5-----------------4-----------------|-9--------9--9--9--9--9--9--9--9--9--|
A|-5-----------------5-----------------|-7--------7--7--7--7--7--7--7--7--7--|
E|-3-----------------------------------|-------------------------------------|


   G                 D                   Em
e|-3-----------------2-----------------|-7--------7--7--7--7--7--7--7--7--7--|
B|-3-----------------3-----------------|-8--------8--8--8--8--8--8--8--8--8--|
G|-4-----------------2-----------------|-9--------9--9--9--9--9--9--9--9--9--|
D|-5-----------------4-----------------|-9--------9--9--9--9--9--9--9--9--9--|
A|-5-----------------5-----------------|-7--------7--7--7--7--7--7--7--7--7--|
E|-3-----------------------------------|-------------------------------------|


   C                 G                   D
e|-0-----------------3-----------------|-2--------2-----2--2-----2-----------|
B|-1-----------------0-----------------|-3--------3-----3--3-----3-----------|
G|-0-----------------0-----------------|-2--------4-----2--4-----2-----------|
D|-2-----------------0-----------------|-0--------0-----0--0-----0-----------|
A|-3-----------------2-----------------|-------------------------------------|
E|-------------------3-----------------|-------------------------------------|


   C                 G
e|-0-----------------3-----------------|
B|-1-----------------0-----------------|
G|-0-----------------0-----------------|
D|-2-----------------0-----------------|
A|-3-----------------2-----------------|
E|-------------------3-----------------|


   A                 A9                  D                 D6
e|-0--------0--0--0--0--0--0--0--0--0--|-2--------2--2--2--2--2--2--2--2--2--|
B|-2--------2--2--2--0--0--0--0--0--0--|-3--------3--3--3--3--3--3--3--3--3--|
G|-2--------2--2--2--2--2--2--2--2--2--|-2--------2--2--2--4--4--4--4--4--4--|
D|-2--------2--2--2--2--2--2--2--2--2--|-0--------0--0--0--0--0--0--0--0--0--|
A|-0--------0--0--0--0--0--0--0--0--0--|-------------------------------------|
E|-------------------------------------|-------------------------------------|


   A                 A9                  D                 D6
e|-0--------0--0--0--3--3--3--3--3--3--|-2--2--2--2--2--2--2--2--2--2--2--2--|
B|-2--------2--2--2--0--0--0--0--0--0--|-3--3--3--3--3--3--3--3--3--3--3--3--|
G|-2--------2--2--2--2--2--2--2--2--2--|-2--2--2--2--2--2--4--4--4--4--4--4--|
D|-2--------2--2--2--2--2--2--2--2--2--|-0--0--0--0--0--0--0--0--0--0--0--0--|
A|-0--------0--0--0--0--0--0--0--0--0--|-------------------------------------|
E|-------------------------------------|-------------------------------------|


VERSE


   A6             A6add9                 D              D6       D
e|-2--------------2--------------------|-2--------------2--------2-----------|
B|-2--------------2--------------------|-3--------------3--------3-----------|
G|-2--------------4--------------------|-2--------------4--------2-----------|
D|-2--------------2--------------------|-0--------------0--------0-----------|
A|-0--------------0--------------------|-------------------------------------|
E|-------------------------------------|-------------------------------------|


   A6             A6add9                 D              D6       D
e|-2--------------2--------------------|-2--------------2--------2-----------|
B|-2--------------2--------------------|-3--------------3--------3-----------|
G|-2--------------4--------------------|-2--------------4--------2-----------|
D|-2--------------2--------------------|-0--------------0--------0-----------|
A|-0--------------0--------------------|-------------------------------------|
E|-------------------------------------|-------------------------------------|


   A                 E                   D
e|-------------------0-----------------|-2-----------------|
B|-2-----------------0-----------------|-3-----------------|
G|-2-----------------1-----------------|-2-----------------|
D|-2-----------------2-----------------|-0-----------------|
A|-0-----------------2-----------------|-------------------|
E|-------------------0-----------------|-------------------|


   Bm
e|-------------------------------------|
B|-3-----------------------------------|
G|-4-----------------------------------|
D|-4-----------------------------------|
A|-2-----------------------------------|
E|-------------------------------------|


INTERLUDE


   N.C.
e|-------------------------------------|-------------------------------------|
B|-------------------------------------|-------------------------------------|
G|-------------------------------------|-------------------------------------|
D|-------------------------2-----------|-------2-----------------2-----------|
A|-2-----4--------5-----------2--------|-2--------------5-----------2--------|
E|-------------------------------------|-------------------------------------|



e|-------------------------------------|-------------------------------------|
B|-------------------------------------|-------------------------------------|
G|-------------------------------------|-------------------------------------|
D|-------------------------2-----------|----------2--------------2-----2--2--|
A|-2-----4--------5-----------2--------|----------------5--------------------|
E|-------------------------------------|-------------------------------------|


CHORUS


   G                 D                   Em
e|-3-----------------2-----------------|-7--------7--7--7--7--7--7--7--7--7--|
B|-3-----------------3-----------------|-8--------8--8--8--8--8--8--8--8--8--|
G|-4-----------------2-----------------|-9--------9--9--9--9--9--9--9--9--9--|
D|-5-----------------4-----------------|-9--------9--9--9--9--9--9--9--9--9--|
A|-5-----------------5-----------------|-7--------7--7--7--7--7--7--7--7--7--|
E|-3-----------------------------------|-------------------------------------|


   G                 D                   Em
e|-3-----------------2-----------------|-7--------7--7--7--7--7--7--7--7--7--|
B|-3-----------------3-----------------|-8--------8--8--8--8--8--8--8--8--8--|
G|-4-----------------2-----------------|-9--------9--9--9--9--9--9--9--9--9--|
D|-5-----------------4-----------------|-9--------9--9--9--9--9--9--9--9--9--|
A|-5-----------------5-----------------|-7--------7--7--7--7--7--7--7--7--7--|
E|-3-----------------------------------|-------------------------------------|


   G                 D                   Em
e|-3-----------------2-----------------|-7--------7--7--7--7--7--7--7--7--7--|
B|-3-----------------3-----------------|-8--------8--8--8--8--8--8--8--8--8--|
G|-4-----------------2-----------------|-9--------9--9--9--9--9--9--9--9--9--|
D|-5-----------------4-----------------|-9--------9--9--9--9--9--9--9--9--9--|
A|-5-----------------5-----------------|-7--------7--7--7--7--7--7--7--7--7--|
E|-3-----------------------------------|-------------------------------------|


   C                 G                   D
e|-0-----------------3-----------------|-2--------2-----2--2-----2-----------|
B|-1-----------------0-----------------|-3--------3-----3--3-----3-----------|
G|-0-----------------0-----------------|-2--------4-----2--4-----2-----------|
D|-2-----------------0-----------------|-0--------0-----0--0-----0-----------|
A|-3-----------------2-----------------|-------------------------------------|
E|-------------------3-----------------|-------------------------------------|


   C                 G
e|-0-----------------3-----------------|
B|-1-----------------0-----------------|
G|-0-----------------0-----------------|
D|-2-----------------0-----------------|
A|-3-----------------2-----------------|
E|-------------------3-----------------|


OUTRO


   A                 A9                  D                 D6
e|-0--0--0--0--0--0--0--0--0--0--0--0--|-2--2--2--2--2--2--2--2--2--2--2--2--|
B|-2--2--2--2--2--2--0--0--0--0--0--0--|-3--3--3--3--3--3--3--3--3--3--3--3--|
G|-2--2--2--2--2--2--2--2--2--2--2--2--|-2--2--2--2--2--2--4--4--4--4--4--4--|
D|-2--2--2--2--2--2--2--2--2--2--2--2--|-0--0--0--0--0--0--0--0--0--0--0--0--|
A|-0--0--0--0--0--0--0--0--0--0--0--0--|-------------------------------------|
E|-------------------------------------|-------------------------------------|


   A                 A9                  D                 D6
e|-0--0--0--0--0--0--3--3--3--3--3--3--|-2--2--2--2--2--2--2--2--2--2--2--2--|
B|-2--2--2--2--2--2--0--0--0--0--0--0--|-3--3--3--3--3--3--3--3--3--3--3--3--|
G|-2--2--2--2--2--2--2--2--2--2--2--2--|-2--2--2--2--2--2--4--4--4--4--4--4--|
D|-2--2--2--2--2--2--2--2--2--2--2--2--|-0--0--0--0--0--0--0--0--0--0--0--0--|
A|-0--0--0--0--0--0--0--0--0--0--0--0--|-------------------------------------|
E|-------------------------------------|-------------------------------------|


   A                 A9                  D                 D6
e|-0--0--0--0--0--0--0--0--0--0--0--0--|-2--2--2--2--2--2--2--2--2--2--2--2--|
B|-2--2--2--2--2--2--0--0--0--0--0--0--|-3--3--3--3--3--3--3--3--3--3--3--3--|
G|-2--2--2--2--2--2--2--2--2--2--2--2--|-2--2--2--2--2--2--4--4--4--4--4--4--|
D|-2--2--2--2--2--2--2--2--2--2--2--2--|-0--0--0--0--0--0--0--0--0--0--0--0--|
A|-0--0--0--0--0--0--0--0--0--0--0--0--|-------------------------------------|
E|-------------------------------------|-------------------------------------|


   A                 A9                  D                 D6
e|-0--0--0--0--0--0--3--3--3--3--3--3--|-2--2--2--2--2--2--2--2--2--2--2--2--|
B|-2--2--2--2--2--2--0--0--0--0--0--0--|-3--3--3--3--3--3--3--3--3--3--3--3--|
G|-2--2--2--2--2--2--2--2--2--2--2--2--|-2--2--2--2--2--2--4--4--4--4--4--4--|
D|-2--2--2--2--2--2--2--2--2--2--2--2--|-0--0--0--0--0--0--0--0--0--0--0--0--|
A|-0--0--0--0--0--0--0--0--0--0--0--0--|-------------------------------------|
E|-------------------------------------|-------------------------------------|


   A                 A9                  D                 D6
e|-0--0--0--0--0--0--0--0--0--0--0--0--|-2--2--2--2--2--2--2--2--2--2--2--2--|
B|-2--2--2--2--2--2--0--0--0--0--0--0--|-3--3--3--3--3--3--3--3--3--3--3--3--|
G|-2--2--2--2--2--2--2--2--2--2--2--2--|-2--2--2--2--2--2--4--4--4--4--4--4--|
D|-2--2--2--2--2--2--2--2--2--2--2--2--|-0--0--0--0--0--0--0--0--0--0--0--0--|
A|-0--0--0--0--0--0--0--0--0--0--0--0--|-------------------------------------|
E|-------------------------------------|-------------------------------------|


   A                 A9                  D                 D6
e|-0--0--0--0--0--0--3--3--3--3--3--3--|-2--2--2--2--2--2--2--2--2--2--2--2--|
B|-2--2--2--2--2--2--0--0--0--0--0--0--|-3--3--3--3--3--3--3--3--3--3--3--3--|
G|-2--2--2--2--2--2--2--2--2--2--2--2--|-2--2--2--2--2--2--4--4--4--4--4--4--|
D|-2--2--2--2--2--2--2--2--2--2--2--2--|-0--0--0--0--0--0--0--0--0--0--0--0--|
A|-0--0--0--0--0--0--0--0--0--0--0--0--|-------------------------------------|
E|-------------------------------------|-------------------------------------|


   A                 A9                  D                 D6
e|-0--0--0--0--0--0--0--0--0--0--0--0--|-2--2--2--2--2--2--2--2--2--2--2--2--|
B|-2--2--2--2--2--2--0--0--0--0--0--0--|-3--3--3--3--3--3--3--3--3--3--3--3--|
G|-2--2--2--2--2--2--2--2--2--2--2--2--|-2--2--2--2--2--2--4--4--4--4--4--4--|
D|-2--2--2--2--2--2--2--2--2--2--2--2--|-0--0--0--0--0--0--0--0--0--0--0--0--|
A|-0--0--0--0--0--0--0--0--0--0--0--0--|-------------------------------------|
E|-------------------------------------|-------------------------------------|


   A                 A9                  D                 D6
e|-0--0--0--0--0--0--3--3--3--3--3--3--|-2--2--2--2--2--2--2--2--2--2--2--2--|
B|-2--2--2--2--2--2--0--0--0--0--0--0--|-3--3--3--3--3--3--3--3--3--3--3--3--|
G|-2--2--2--2--2--2--2--2--2--2--2--2--|-2--2--2--2--2--2--4--4--4--4--4--4--|
D|-2--2--2--2--2--2--2--2--2--2--2--2--|-0--0--0--0--0--0--0--0--0--0--0--0--|
A|-0--0--0--0--0--0--0--0--0--0--0--0--|-------------------------------------|
E|-------------------------------------|-------------------------------------|
                                                                     FADE OUT

ĂŽnscrie-te la newsletter


Like us on Facebook