Stand By Me Bass Tab - John Lennon






John Lennon: Stand By Me

correct this if wrong

Start/Verse/Chorus/Bridge
G|--2-3--3--2-3-3|-3-2-0--0---0-0|-0-------0----|--2-3--3--2-3-3|
D|-3-------3-----|-----------2---|--3-1-1-1-3-3-|-3-------3-----|
A|---------------|---------------|--------------|---------------|
E|---------------|---------------|--------------|---------------|

G|--2-3--3--2-3-3|-3-2-0--0---0-0|-0-------0----|--2-3--3--2-3-3|
D|-3-------3-----|-----------2---|--3-1-1-1-3-3-|-3-------3-----|
A|---------------|---------------|--------------|---------------|
E|---------------|---------------|--------------|---------------|

G|--2-3--3--2-3-3|-3-2-0--0---0-0|-0-------0----|--2-3--3--2-3-3|
D|-3-------3-----|-----------2---|--3-1-1-1-3-3-|-3-------3-----|
A|---------------|---------------|--------------|---------------|
E|---------------|---------------|--------------|---------------|

G|--2-3--3--2-3-3|-3-2-0--0---0-0|-0-------0----|--2-3--3--2-3-3|
D|-3-------3-----|-----------2---|--3-1-1-1-3-3-|-3-------3-----|
A|---------------|---------------|--------------|---------------|
E|---------------|---------------|--------------|---------------|

G|--2-3--3--2-3-3|-3-2-0--0---0-0|-0-------0----|--2-3--3--2-3-3|
D|-3-------3-----|-----------2---|--3-1-1-1-3-3-|-3-------3-----|
A|---------------|---------------|--------------|---------------|
E|---------------|---------------|--------------|---------------|

G|--2-3--3--2-3-3|-3-2-0--0---0-0|-0-------0----|--2-3--3--2-3-3|
D|-3-------3-----|-----------2---|--3-1-1-1-3-3-|-3-------3-----|
A|---------------|---------------|--------------|---------------|
E|---------------|---------------|--------------|---------------|X8

ENDING
G|--2-3--3--2-3-3|-3-2-0--0---0-0|-0-------0----|--2-3--3--2-3-3--0-0|
D|-3-------3-----|-----------2---|--3-1-1-1-3-3-|-3-------3----------|
A|---------------|---------------|--------------|--------------------|
E|---------------|---------------|--------------|--------------------|X2



Play al the way through

This should be right seeing as how i played this in band both pennywise's way and this way.






Like us on Facebook