Slow Dancing In A Burning Room Tab - John Mayer






John Mayer-Slow Dancing in a Burning Room 
Continuum (Unrealeased)
This is the basics of the song not the whole entire tab. But hopefully you can get the rest.

Tabbed by: Oleg.O

Intro

e:-------------------------------------------|
B:----------------------------5----5---------|
G:--------9~-----9--8--6--4---4h6--4---------|
D:--------------11--9--7--6--------6---9-----|
A:---9/11------------------------------9h11--|
E:------------9---------------5--------0-----|


Verse

e:----------------------------------------------|
B:----9------------------------5----------------|
G:----9-------9----------------6--------9-------|
D:---11-------9h11p9-----------7---9----9h11p9--|
A:-------9h11--------9p11p9----X---9h11---------|
E:----9------------------------5---0------------|


Chorus

e:------------------------------|
B:---7-------------------9---5--|
G:---8h9p8---------------9---6--|
D:---X------------------11---7--|
A:---X-------------------X---X--|
E:---7-------------------9---5--|


Bridge

e:---4--------------------------0--|
B:---2----9---7-----------------5--|
G:---2----9---8h9p8-------------6--|
D:---2---11---X-----------------7--|
A:---X----X---X-----------------X--|
E:---2----9---7-----------------5--|

Not to confident on the first bridge chord but I think it's something he'd play.

Outro

e:---0-------|
B:---5-------|
G:---6----9--|
D:---7----9--|
A:---X---11--|
E:---5----0--|

ĂŽnscrie-te la newsletter


Like us on Facebook