Wherever You Go Chords - John Mayer






I didnt put the strumming pattern, you just have to listen to the song and figure it out

Tuning: Standard

             
 Wherever I Go,Whatever I Do,I wonder where I am in my relationship to you
e|-----3--------------------3-------------------3--------------------3---------|
B|-----3--------------------3-------------------3--------------------3---------|
G|-----x--------------------x-------------------x--------------------x---------|
D|-----x--------------------x-------------------x--------------------2---------|
A|-----2--------------------2-------------------x--------------------3---------|
E|-----3--------------------x-------------------2--------------------x---------|
           
       G                   G/B                 D/F#                Cadd9        

Wherever you Go,Wherever You are,I watch your life unfold in pictures from afar
e|-----3--------------------3-------------------3--------------------3---------|
B|-----3--------------------3-------------------3--------------------3---------|
G|-----x--------------------x-------------------x--------------------x---------|
D|-----x--------------------x-------------------x--------------------2---------|
A|-----2--------------------2-------------------x--------------------3---------|
E|-----3--------------------x-------------------2--------------------x---------|

ĂŽnscrie-te la newsletter


Like us on Facebook