Your Body Is A Wonderland (ver4) Tab - John Mayer






John Mayer
Artist's Site: www.johnmayer.com
Your Body is a Wonderland (Alternate)
Tabbed By: Andy Moore

Comments/Corrections can be sent to: ajmoore@dmv.com


**Note: This is from memory, I don't have a guitar in front
of me right now so don't get pissed if it's not exactly
right...its pretty close I think

This is just an alternate way to play this song...John actually
plays it a bit differently if you watch...same notes and chords
this way is just a bit easier for me....Plus this way can be 
done in standard tuning as opposed to drop D.

Tuning: Standard(EADGBE)


Part 1
E--------------------------------------------------|
B------6---6-------6---6-------6---6-------6---6---|
G------5---5-------5---5-------5---5-------5---5---|
D--------------------------------------------------|
A--8-----------------------------------------------|
E-------(x)----8----(x)----6*---(x)----8----(x)----|

*Note: I play the A# bass note (low E, 6th fret) with my thumb

**NOTE: "(x)" is just my way of noting that you kind of slap the 
string while muting it...listen to the acoustic only
version of the song to hear what I'm talking about

Part 2
E--------------------|
B--10--8---8---------|
G--10--10--10--------|
D--------------------|
A--------------------|
E--------------(x)---|


Part 3
E-------------------------------------------|
B-----3---3-----5---5-----6---6-----8---8---|
G-----3---3-----5---5-----7---7-----9---9---|
D-------------------------------------------|
A-------------------------------------------|
E--3---(x)---5---(x)---6---(x)---8---(x)----|


Theres a bit more to the song that I haven't gotten
around to tabbing yet, I will add it later...this covers
most of the song though

ĂŽnscrie-te la newsletter


Like us on Facebook