Red Eye Flashes Twice Tab - Julian Smith






Red Eye Flashes Twice

Song by Julian Smith.  Tabbed by TallonMetroid

Capo 6

                                                    This is a song

e:--------------|--------------|------------|-------------|
B:--------------|--------------|------------|-------------|
G:-----2----2---|-----2----2---|---2---2----|----2----2---|
D:-----1----1---|-----1----1---|---1---1----|----1----1---|
A:--2-----------|-2------------|-2----------|-2-----------|
E:--------2-----|--------2-----|------2-----|-------2-----|

for every person in the world.

e:-------------|--------------|------------|-------------|
B:-------------|--------------|------------|-------------|
G:-----2----2--|-----2----2---|---2---2----|----2----2---|
D:-----1----1--|-----1----1---|---1---1----|----1----1---|
A:--2----------|-2------------|-2----------|-2-----------|
E:--------2----|--------2-----|------2-----|-------2-----|

Everybodys tryin to get their picture lookin nice,

e:--------------|--------------|------------|-------------|
B:--------------|--------------|------------|-------------|
G:-----2----2---|-----2----2---|---2---2----|----2----2---|
D:-----1----1---|-----1----1---|---1---1----|----1----1---|
A:--2-----------|-2------------|-2----------|-2-----------|
E:--------2-----|--------2-----|------2-----|-------2-----|

but they act like a camera is some foreign device.

e:--------------|--------------|------------|-------------|
B:--------------|--------------|------------|-------------|
G:-----7----2---|-----7----7---|---7---7----|----7----7---|
D:-----6----6---|-----6----6---|---6---6----|----6----6---|
A:--7-----------|-7------------|-7----------|-7-----------|
E:--------7-----|--------7-----|------7-----|-------7-----|

Ive got something to ask you, and Ill keep it concise:

e:--------------|---------------|-----------|-------------|
B:--------------|---------------|-----------|-------------|
G:-----2----2---|-----2----2----|---2---2---|----2----2---|
D:-----1----1---|-----1----1----|---1---1---|----1----1---|
A:--2-----------|-2-------------|-2---------|-2-----------|
E:--------2-----|--------2------|------2----|-------2-----|





What are you, stupid? Red eye flashes

e:--------------|-------------|----------|-------------|
B:--------------|-------------|----------|-------------|
G:-----9----9---|-----9-------|---7---7--|----7----7---|
D:-----8----8---|-----8-------|---6---6--|----6----6---|
A:--9-----------|-9-----9-8---|-7--------|-7-----------|
E:--------9-----|-------------|-----7----|-------7-----|

Twice!

e:--------------|--------------|------------|-------------|
B:--------------|--------------|------------|-------------|
G:-----2----2---|-----2----2---|---2---2----|----2----2---|
D:-----1----1---|-----1----1---|---1---1----|----1----1---|
A:--2-----------|-2------------|-2----------|-2-----------|
E:--------2-----|--------2-----|------2-----|-------2-----|

I was trying to snap a picture of my buddies Bill and Bryce,

e:--------------|--------------|-----------|-------------|
B:--------------|--------------|-----------|-------------|
G:-----2----2---|-----2----2---|---2---2---|----2----2---|
D:-----1----1---|-----1----1---|---1---1---|----1----1---|
A:--2-----------|-2------------|-2---------|-2-----------|
E:--------2-----|--------2-----|------2----|-------2-----|

Bill takes lots of pictures, so he gave me some advice.

e:--------------|--------------|-----------|-------------|
B:--------------|--------------|-----------|-------------|
G:-----7----2---|-----7----7---|---7---7---|----7----7---|
D:-----6----6---|-----6----6---|---6---6---|----6----6---|
A:--7-----------|-7------------|-7---------|-7-----------|
E:--------7-----|--------7-----|------7----|-------7-----|


He moved before the 2nd flash, photographer, yeah right

e:--------------|--------------|-----------|-------------|
B:--------------|--------------|-----------|-------------|
G:-----2----2---|-----2----2---|---2---2---|----2----2---|
D:-----1----1---|-----1----1---|---1---1---|----1----1---|
A:--2-----------|-2------------|-2---------|-2-----------|
E:--------2-----|--------2-----|------2----|-------2-----|


What are you, stupid, Bill? Red eye flashes
e:--------------|-------------|----------|-------------|
B:--------------|-------------|----------|-------------|
G:-----9----9---|-----9-------|---7---7--|----7----7---|
D:-----8----8---|-----8-------|---6---6--|----6----6---|
A:--9-----------|-9-----9-8---|-7--------|-7-----------|
E:--------9-----|-------------|-----7----|-------7-----|

twice!

e:--------------|--------------|------------|-------------|
B:--------------|--------------|------------|-------------|
G:-----2----2---|-----2----2---|---2---2----|----2----2---|
D:-----1----1---|-----1----1---|---1---1----|----1----1---|
A:--2-----------|-2------------|-2----------|-2-----------|
E:--------2-----|--------2-----|------2-----|-------2-----|

All your friend will hate your guts, if you dont stand still

e:-------------|--------------|------------|-------------|
B:-------------|--------------|------------|-------------|
G:-----7----7--|-----6----6---|---7---7----|----6----6---|
D:-----6----6--|-----7----7---|---6---6----|----7----7---|
A:-------------|--------------|------------|-------------|
E:---4----4----|---5-----5----|-4----4-----|--5-----5----|

Your family will disown your butt, and probly have you killed

e:-------------|--------------|-----------|-------------|
B:-------------|--------------|-----------|-------------|
G:-----7----7--|-----6----6---|-----------|-------------|
D:-----6----6--|-----7----7---|---3---3---|---2----2----|
A:-------------|--------------|---0---0---|---2----2----|
E:---4----4----|---5-----5----|-1----1----|--0---0------|


If you have a girlfriend, which we all know you dont,

e:-------------|--------------|------------|-------------|
B:-------------|--------------|------------|-------------|
G:-----7----7--|-----6----6---|---7---7----|----6----6---|
D:-----6----6--|-----7----7---|---6---6----|----7----7---|
A:-------------|--------------|------------|-------------|
E:---4----4----|---5-----5----|-4----4-----|--5-----5----|

but if you do shell leave you, and then you definitely

e:-------------|---------------|------------|-------------|
B:-------------|---------------|------------|-------------|
G:-----7----7--|-----6----6----|------------|-------------|
D:-----6----6--|-----7----7----|---4--4-----|----4--4-----|
A:-------------|---------------|---2--2-----|----2--2-----|
E:---4----4----|---5-----5-----|-2----------|--2----------|

wont! Have a girlfriend!

e:--------------|--------------|-----------|-------------|
B:--------------|--------------|-----------|-------------|
G:-----7----2---|-----7----7---|---7---7---|----7----7---|
D:-----6----6---|-----6----6---|---6---6---|----6----6---|
A:--7-----------|-7------------|-7---------|-7-----------|
E:--------7-----|--------7-----|------7----|-------7-----|
The famous person in this picture wasnt very nice

e:--------------|--------------|-----------|-------------|
B:--------------|--------------|-----------|-------------|
G:-----2----2---|-----2----2---|---2---2---|----2----2---|
D:-----1----1---|-----1----1---|---1---1---|----1----1---|
A:--2-----------|-2------------|-2---------|-2-----------|
E:--------2-----|--------2-----|------2----|-------2-----|

All I wanted was his picture (and his pizza slice)

e:--------------|--------------|------------|-------------|
B:--------------|--------------|------------|-------------|
G:-----7----2---|-----7----7---|---7---7----|----7-----7--|
D:-----6----6---|-----6----6---|---6---6----|----6----6---|
A:--7-----------|-7------------|-7----------|-7-----------|
E:--------7-----|--------7-----|------7-----|-------7-----|

With just one flash he walked away, as if I had head lice

e:--------------|--------------|-----------|-------------|
B:--------------|--------------|-----------|-------------|
G:-----2----2---|-----2----2---|---2---2---|----2----2---|
D:-----1----1---|-----1----1---|---1---1---|----1----1---|
A:--2-----------|-2------------|-2---------|-2-----------|
E:--------2-----|--------2-----|------2----|-------2-----|

What are you, stupid?      HehIve seen all your movies twice

e:--------------|-------------|----------|-------------|
B:--------------|-------------|----------|-------------|
G:-----9----9---|-----9-------|---7---7--|----7----7---|
D:-----8----8---|-----8-------|---6---6--|----6----6---|
A:--9-----------|-9-----9-8---|-7--------|-7-----------|
E:--------9-----|-------------|-----7----|-------7-----|


e:--------------|--------------|-----------|-------------|
B:--------------|--------------|-----------|-------------|
G:-----2----2---|-----2----2---|---2---2---|----2----2---|
D:-----1----1---|-----1----1---|---1---1---|----1----1---|
A:--2-----------|-2------------|-2---------|-2-----------|
E:--------2-----|--------2-----|------2----|-------2-----|

All your friend will hate your guts, if you dont stand still

e:-------------|--------------|------------|-------------|
B:-------------|--------------|------------|-------------|
G:-----7----7--|-----6----6---|---7---7----|----6----6---|
D:-----6----6--|-----7----7---|---6---6----|----7----7---|
A:-------------|--------------|------------|-------------|
E:---4----4----|---5-----5----|-4----4-----|--5-----5----|

Your family will disown your butt, and probly have you killed

e:-------------|--------------|-----------|-------------|
B:-------------|--------------|-----------|-------------|
G:-----7----7--|-----6----6---|-----------|-------------|
D:-----6----6--|-----7----7---|---3---3---|---2----2----|
A:-------------|--------------|---0---0---|---2----2----|
E:---4----4----|---5-----5----|-1----1----|--0---0------|


If you have a girlfriend, which we all know you dont,

e:-------------|--------------|------------|-------------|
B:-------------|--------------|------------|-------------|
G:-----7----7--|-----6----6---|---7---7----|----6----6---|
D:-----6----6--|-----7----7---|---6---6----|----7----7---|
A:-------------|--------------|------------|-------------|
E:---4----4----|---5-----5----|-4----4-----|--5-----5----|

but if you do shell leave you, and then you definitely

e:--------------|---------------|------------|-------------|
B:--------------|---------------|------------|-------------|
G:-----7----7---|-----6----6----|------------|-------------|
D:-----6----6---|-----7----7----|---4--4-----|----4--4-----|
A:--------------|---------------|---2--2-----|----2--2-----|
E:---4----4-----|---5-----5-----|-2----------|--2----------|

wont!

e:--------------|--------------|-----------|-------------|
B:--------------|--------------|-----------|-------------|
G:-----7----2---|-----7----7---|---7---7---|----7----7---|
D:-----6----6---|-----6----6---|---6---6---|----6----6---|
A:--7-----------|-7------------|-7---------|-7-----------|
E:--------7-----|--------7-----|------7----|-------7-----|

See it's much easier to just assume that the flash is gonna go two times and to just
wait there for a second, rather than move and risk all these people in your life hating you
forever and wanting you dead, because every time they look at their picture, they don't 
see the picture, they see, "Oh, there's 'So-and-So'. He ruined my picture IN FRONT OF THE
WASHINGTON MONUMENT. I FREAKIN' HATE THAT GUY!"

e:--------------|--------------|------------|-------------|
B:--------------|--------------|------------|-------------|
G:-----2----2---|-----2----2---|---2---2----|----2----2---|
D:-----1----1---|-----1----1---|---1---1----|----1----1---|
A:--2-----------|-2------------|-2----------|-2-----------|
E:--------2-----|--------2-----|------2-----|-------2-----|
(repeat until done with talking segment)



All your friend will hate your guts, if you dont stand still

e:-------------|--------------|------------|-------------|
B:-------------|--------------|------------|-------------|
G:-----7----7--|-----6----6---|---7---7----|----6----6---|
D:-----6----6--|-----7----7---|---6---6----|----7----7---|
A:-------------|--------------|------------|-------------|
E:---4----4----|---5-----5----|-4----4-----|--5-----5----|

Your family will disown your butt, and probly have you killed

e:-------------|--------------|-----------|-------------|
B:-------------|--------------|-----------|-------------|
G:-----7----7--|-----6----6---|-----------|-------------|
D:-----6----6--|-----7----7---|---3---3---|---2----2----|
A:-------------|--------------|---0---0---|---2----2----|
E:---4----4----|---5-----5----|-1----1----|--0---0------|


If you have a girlfriend, which we all know you dont,

e:-------------|--------------|------------|-------------|
B:-------------|--------------|------------|-------------|
G:-----7----7--|-----6----6---|---7---7----|----6----6---|
D:-----6----6--|-----7----7---|---6---6----|----7----7---|
A:-------------|--------------|------------|-------------|
E:---4----4----|---5-----5----|-4----4-----|--5-----5----|

but if you do shell leave you, and then you

e:--------------|--------------|-----------|---------------|
B:--------------|--------------|-----------|---------------|
G:-----7----7---|-----6----6---|-----------|---------------|
D:-----6----6---|-----7----7---|---3--3----|-----3---3-----|
A:--------------|--------------|---0--0----|-----0---0-----|
E:---4----4-----|---5-----5----|-1---1-----|--1---1--------|

Definitely wont!                             Youll be single
e:-------------|---------------|-----------|-------------|
B:-------------|---------------|-----------|-------------|
G:-------------|---------------|---7---7---|----7-----7--|
D:-----4----4--|-----4----4----|---6---6---|----6----6---|
A:-----2----2--|-----2----2----|-7---------|-7-----------|
E:--2-----2----|--2------2-----|------7----|-------7-----|

for the rest of your life!

e:--------------|--------------|-----------|-------------|
B:--------------|--------------|-----------|-------------|
G:-----7----2---|-----7----7---|---7---7---|----7-----7--|
D:-----6----6---|-----6----6---|---6---6---|----6----6---|
A:--7-----------|-7------------|-7---------|-7-----------|
E:--------7-----|--------7-----|------7----|-------7-----|

And you wont have any pictures of yourself, either.

ĂŽnscrie-te la newsletter


Join the ranks ! LIKE us on Facebook