Psychotic Cremation Bass Tab - Jungle Rot




+++++++++++++++++++++++++++++++++++++++++++++++++++++++++++++++++++++++++++++++
Psychotic Cremation - Jungle Rot
+++++++++++++++++++++++++++++++++++++++++++++++++++++++++++++++++++++++++++++++

Band: Jungle Rot
Song: Psychotic Cremation
Album: Dead And Buried

Tuning: BEAG (tho your only playing on 1 string)
Fun song to play, funny lyrics too!

Intro/Verse
B|--0---0-2-3-2-0--0--|
E|--------------------|  (Repeat 6 times)
A|--------------------|
D|--------------------|

Chorus
B|--0-3-4-2--|
E|-----------|  (Repeat 16 times)
A|-----------|
D|-----------|

Verse
B|--0---0-2-3-2-0--0--|
E|--------------------|  (Repeat 8 times)
A|--------------------|
D|--------------------|

Chorus
B|--0-3-4-2--|
E|-----------|  (Repeat 14 times)
A|-----------|
D|-----------|

Last Chours (Yes 99% the same as the chorus)
B|--0-3-4-2-0000-|
E|---------------|
A|---------------|
D|---------------|

The last chorus is the same thru out the song, just it finishes
playing 4 notes on B.

Its pretty simple, but for the chorus let me tell you that you may think it
sound like this B|--0-5-4-3- but if you listen carefully its B|--0-3-4-2--

ĂŽnscrie-te la newsletter


Join the ranks ! LIKE us on Facebook