Red Skies Tab - Jungle Rot




Jungle rot (red skies) from album "dead and buried"
                   2
all open notes and 0 are all palm muted

Riff A
|-3-5-5-7-87------------------------------------------------------------------|
|-3-5-5-7-87------------------------------------------------------------------|
|-1-3-3-5-65------------------------------------------------------------------|

Riff B
|----3-5-----5-7-----87-----------------------------------| play the 2 open
|----3-5-----5-7-----87-----------------------------------| notes when riff
|0-0-1-3-0-0-3-5-0-0-65----0-0----------------------------| is done

Riff C
|----------------------------------------------------------|
|-2-2-2-2-2-2-2-2-2-43------------------------------------|
|-0-0-0-0-0-0-0-0-0-21------------------------------------|

Riff D
|----------------------------------------------------------|
|-2-2-2-2-2-2-----2-2-2-2-43------------------------------|
|-0-0-0-0-0-0-----0-0-0-0-21------------------------------|

Riff E

|----------------------------------------------------------|
|-----4-----4--------333444--------------------------------|
|-000-2-000-2--000222--------------------------------------|

Ending Riff

|-3-5-5-7-------------------------------------------------|
|-3-5-5-7-------------------------------------------------|
|-1-3-3-5-------------------------------------------------|

Support Jungle Rot and the whole Death Metal scene. Have any questions
e-mail me at grotesque_cannibal@totaldeath.com

ĂŽnscrie-te la newsletter


Join the ranks ! LIKE us on Facebook