Third The Magical Tab - Kalmah




Kalmah
"The Third, the magical"
Swamp Songs
Tabbed by Kevin Cruz

Tune all strings down half step

                                                    16x
|--------------------|-------------------||------------|
|--------------------|-------------------||------------|
|--------------------|-------------------||------------|
|--------------------|-5-----7-7-7-7-7-7-||------------|
|--------------------|-3--5--5-5-5-5-5-5-||-5br2-------|
|-0--0-0-0--0--0-0-0-|----3--------------||-3br0-0-0-0-|
  .  . . .  .  . . .           . . . . .         . . . 

|-----------------------------|------------|
|-----------------------------|------------|
|-----------------------------|------------|
|-2---------------------------|-2-----7--2-|
|-3-333-333-333-2-------------|-3--2--5--0-|
|---------------3-333-333-333-|----3-------|
    ... ... ...   ... ... ...     

|-0h7-0-0-0-0-0h7-0-0-0-0-|
|-------------------------|
|-------------------------|
|-------------------------|
|-------------------------|
|-------------------------|

                                                       4x
|-0h7-0-0-0-0-|-7-0-10-0-8-0-7-8-10-8-7-----------------|
|-------------|-------------------------10-7-8-10-8-7---|
|-------------|---------------------------------------9-|
|-------------|-----------------------------------------|
|-------------|-----------------------------------------|
|-------------|-----------------------------------------|


thats all i can figure out
ĂŽnscrie-te la newsletter


Join the ranks ! LIKE us on Facebook