Rule The World Intro Tab - Kamelot






-------------------------------------------------------------------------------
     Rule The World - Kamelot
-------------------------------------------------------------------------------
Tabbed by: Ramtin P.
Email:redphoenix_R@hotmail.co.uk

Tuning: C# -
C#
F#
B
E
G#
C#

C#|-----------------------------------|-------------------------------------|
F#|-----------------------------------|-------------------------------------|
B |-----------------------------------|-------------------------------------|
E |-----------------------------------|-------------------------------------|
G#|------7-------8-------10-------8---|-----7-------8-------5-----7---------|
C#|--0-0---0-0-0---0-0-0----0-0-0---0-|-0-0---0-0-0---0-0-0---0-0-----0-----|

C#|-----------------------------------|------------------------------------|
F#|-----------------------------------|------------------------------------|
B |-----------------------------------|------------------------------------|
E |-----------------------------------|------------------------------------|
G#|------7-------8-------10-------8---|-----7-------8-----7+~-----5+~(1)---|
C#|--0-0---0-0-0---0-0-0----0-0-0---0-|-0-0---0-0-0---0-0-----0------------|

| ~  vibrato
| +  harmonic - In this case, pinch.
| (1) full bend

S'all I've got so far.
I'll work on some more soon. :D Enjoy.
===============================================================================

ĂŽnscrie-te la newsletter


Like us on Facebook