The Fourth Legacy Tab - Kamelot






Author/Artist: KAMELOT
Title: The Fourth Legacy
Transcribed by: Jose Antonio Marin
Email: jamarin777@hotmail.com

-|---------------------------------------------------|----------------------
--
-|----6-----6-9-8-6-8----------8-----8-11-9-8-9------|----------------------
--
-|*-5------------------------5-----------------------|----------------------
--
-|*--------------------------------------------------|----------------------
--
-|---------------------------------------------------|----------------------
--
-|---------------------------------------------------|----------------------
--


-|---------------------------------------------------|----------------------
--
-|---6-----6-9-8-6-8---------13-11-9-11-9-8-9-8-5-6--|----------------------
--
-|-5------------------------------------------------*|----------------------
--
-|--------------------------------------------------*|----------------------
--
-|---------------------------------------------------|----------------------
--
-|---------------------------------------------------|----------------------
--


-|---------------------------------------------------|----------------------
--
-|---6-----6-9-8-6-8-----------8-----8-11-9-8-9------|----------------------
--
-|-5-------------------------5-----------------------|----------------------
--
-|---------------------------------------------------|----------------------
--
-|---------------------------------------------------|----------------------
--
-|---------------------------------------------------|----------------------
--


-|---------------------------------------------------|----------------------
--
-|---9-----9-13-11-9-13------13-9-11-8-9-6-8-5-6-----|----------------------
--
-|-5-------------------------------------------------|----------------------
--
-|---------------------------------------------------|----------------------
--
-|---------------------------------------------------|----------------------
--
-|---------------------------------------------------|----------------------
--


-|------------------|-----------------|-------------------------------------
--
-|------------------|-----------------|-------------------------------------
--
-|------------------|-----------------|-------------------------------------
--
-|------------------|-5-6-----5-3-----|-------------------------------------
--
-|3-------5-6-------|-3-4-----3-1---6-|---33-3-3-3--------------------------
--
-|1-------3-4-------|---------------4-|-0-11-1-1-1--------------------------
--

ĂŽnscrie-te la newsletter


Like us on Facebook