Until Kingdom Come Intro Tab - Kamelot






Band: Kamelot
Song: Until Kingdom Come
Album: The Fourth Legacy
Release: 1999
Tabbed by: The Soulthief
Mail: chaosmarcel@hotmail.com

Tuning: Standard 

Intro 
|----------------------------------------------------------|
|----------------------------------------------------------|
|--------7---------7-----------4---------------------------|
|--4-----7---------7-----4-----4---------------------------|
|--4-----5-----5-5-5-----4-----2----5--4--2--0--4--2--0----|
|--2---------------------2------------------------------2--|
p.m.              . . .

Verse 1

|-------------------------------------------------------------------|
|-------------------------------------------------------------------|
|------------------------7------------------------------------------|
|--4---------------------7------------------------------------------|
|--4---------------------5-5-5-5-5-5-5-5-5---5--4--2--0--4--2--0----|
|--2-2-2-2-2-2-2-2-2---------------------------------------------2--|
p.m. . . . . . . . .       . . . . . . . .

|--------------------------------------------------------|
|--------------------------------------------------------|
|------------------------4----------------------4-----2--|
|--4---------------------4----------------------4-----2--|
|--4---------------------2-2-2-2-2-2-2-2-2------2-----0--|
|--2-2-2-2-2-2-2-2-2-------------------------------------|
p.m. . . . . . . . .       . . . . . . . .

Then comes the singing part.

Use the same cords while Roy is singing and listen to the music for the rythme

If you have questions, mail me please

Have Fun!!

ĂŽnscrie-te la newsletter


Join the ranks ! LIKE us on Facebook