As My World Burns Intro Tab - Kataklysm




-------------------------------------------------------------------------|
-------------------------------------------------------------------------|
-------------------------------------------------------------------------|
-------------------------------------------------------------------------|
-------2-----3-----2-3-5-------2-----3-----3-2-0-------------------------|
-0-0-0---0-0---0-0-------0-0-0---0-0---0-0-------------------------------|


-------------------------------------------------------------------------|
-------------------------------------------------------------------------|
-------------------------------------------------------------------------|
-------------------------------------------------------------------------|
-------2-----2-----2--------3-----3-----3-2-0----------------------------|
-3-3-3---3-3---3-3----2-2-2---2-2---2-2----------------------------------|


----------------------------------------------------------------------------------|
----------------------------------------------------------------------------------|
----------------------------------------------------------------------------------|
----------------------------------------------------------------------------------|
----------------------------------------------------------------------------------|
-3"--5"--4"--6"-------------------------------------------------------------------|
ĂŽnscrie-te la newsletter


Join the ranks ! LIKE us on Facebook