As The Glorious Weep Intro Tab - Kataklysm




Artist: Kataklysm
Song:   As the Glorious Weep
Album:  Epic (The Poetry of War)
Tuning: B-E-A-D-G-B

Note: This is just a basic start for the intro
and chorus. I just got the dvd a couple days ago
and figured this out watching it. The notes aren't
exactly as played but just give you a good idea.

Intro:
|---1-1-1-1-1-1--0-0-0------------------|
|---1-1-1-1-1-1--0-0-0------------------|
|---2-2-2-2-2-2--2-2-2------------------|
|---3-3-3-3-3-3--3-3-3--3-3-3--5-5-5----|
|-----------------------3-3-3--5-5-5----|
|-----------------------1-1-1--3-3-3----|

Chorus:
|----------------------------------------------------------------------|
|----------------------------------------------------------------------|
|---10-10-10-10-10-10-9-9-9-7-7-7--10-10-10-10-10-10-9-9-9-12-12-12----|
|----------------------------------------------------------------------|
|----------------------------------------------------------------------|
|----------------------------------------------------------------------|
ĂŽnscrie-te la newsletter


Join the ranks ! LIKE us on Facebook