World Of Treason Bass Tab - Kataklysm




world of treason...
World of Treason
by Kataklysm

tabbed by JP jpp@mindless.com

(sorry, it's still incomplete)

Tune down 1 1/2 steps

  4 times
-|--------------|--------------|-------------|------------------|
3|*-7-----7-----|-7-----7-9-10-|-9-----9-----|-9-------9-------*|
4|*---0-0---0-0-|---0-0--------|---0-0---0-0-|---10-10---10-10-*|
-|--------------|--------------|-------------|------------------|


   2 times
|--------------|-------------|-------------|--------------|---------|
|*-7-----------|-7-----------|-7-----------|-7-----------*|-7-------|
|*---0-0-9-9-9-|---0-0-8-8-8-|---0-0-9-9-9-|---0-0-8-8-8-*|---------|
|--------------|-------------|-------------|--------------|---------|


  faster
-|-------------|-------------|-------------|-------------|
4|-------------|-------------|-------------|-------------|
4|-------------|-------------|-------------|----------10-|
-|-------------|-------------|-------------|-------------|


|-------------|-------------|-------------|-------------|
|-9-----------|-------------|-9-----------|-------------|
|-------------|----------10-|-------------|----------10-|
|-------------|-------------|-------------|-------------|


|------------------|---------------|-----------------|----------------|
|*-9----9-10----10-|-7----7-9---7--|-9----9-10----10-|-7----7-9---7--*|
|*-----------------|---------------|-----------------|---------------*|
|------------------|---------------|-----------------|----------------|

heavy distortion
|----------------|----------------|
|----------------|----------------|
|-7-7-7-7-7------|5-5-5-3---3-3-5-|
|----------------|----------------|
ĂŽnscrie-te la newsletter


Join the ranks ! LIKE us on Facebook