Somewhere Only We Know (ver4) Tab - Keane






Keane
"Somewhere Only We Know"
Hopes and Fears
Tuning: Drop D (DADGBE)

Hey everybody this is the song "Somewhere Only We Know" from the album "Hopes and 
This song is actually played by a piano, so tabbing it out was a little hard. If you have any 
go ahead and email me. I'll be happy to fix it.

INTRO
e|-----------------|-----------------|-----------------|-----------------|
B|-----------------|-----------------|-----------------|-----------------|
G|-----------------|-------7-7-7-----|-7-7-7-7-7-7-7-7-|-----------------|
D|-7-7-7-7-7-7-7-7-|-6-6-6-7-7-7-7-7-|-7-7-7-7-7-7-7-7-|-7-7-7-6-6-6-7-7-|
A|-7-7-7-7-7-7-7-7-|-6-6-6-5-5-5-7-7-|-5-5-5-5-7-7-5-5-|-7-7-7-6-6-6-7-7-|
D|-7-7-7-7-7-7-7-7-|-6-6-6-------7-7-|-----------------|-7-7-7-6-6-6-7-7-|

e|-----------------|-----------------|-----------------|-----------------|
B|-----------------|-----------------|-----------------|-----------------|
G|-----------------|-------7-7-7-----|-7-7-7-7-7-7-7-7-|-----------------|
D|-7-7-7-7-7-7-7-7-|-6-6-6-7-7-7-7-7-|-7-7-7-7-7-7-7-7-|-7-7-7-6-6-6-7-7-|
A|-7-7-7-7-7-7-7-7-|-6-6-6-5-5-5-7-7-|-5-5-5-5-7-7-5-5-|-7-7-7-6-6-6-7-7-|
D|-7-7-7-7-7-7-7-7-|-6-6-6-------7-7-|-----------------|-7-7-7-6-6-6-7-7-|

VERSE
e|-----------------|-----------------|-----------------|-----------------|
B|-----------------|-----------------|-----------------|-----------------|
G|-----------------|-----------------|-7-7-7-7-7-7-7-7-|-----------------|
D|-7-7-7-7-7-7-7-7-|-6-6-6-6-6-6-6-6-|-7-7-7-7-7-7-7-7-|-7-7-7-6-6-6-7-7-|
A|-7-7-7-7-7-7-7-7-|-6-6-6-6-6-6-6-6-|-5-5-5-5-5-5-5-5-|-7-7-7-6-6-6-7-7-|
D|-7-7-7-7-7-7-7-7-|-6-6-6-6-6-6-6-6-|-----------------|-7-7-7-6-6-6-7-7-|
   * * * * * * * *   * * * * * * * *   * * * * * * * *   * * * * * * * *

e|-----------------|-----------------|-----------------|-----------------|
B|-----------------|-----------------|-----------------|-----------------|
G|-----------------|-----------------|-7-7-7-7-7-7-7-7-|-----------------|
D|-7-7-7-7-7-7-7-7-|-6-6-6-6-6-6-6-6-|-7-7-7-7-7-7-7-7-|-7-7-7-6-6-6-7-7-|
A|-7-7-7-7-7-7-7-7-|-6-6-6-6-6-6-6-6-|-5-5-5-5-5-5-5-5-|-7-7-7-6-6-6-7-7-|
D|-7-7-7-7-7-7-7-7-|-6-6-6-6-6-6-6-6-|-----------------|-7-7-7-6-6-6-7-7-|
   * * * * * * * *   * * * * * * * *   * * * * * * * *   * * * * * * * *

PRE-CHORUS
e|-----------------|-----------------|-----------------|-----------------|
B|-----------------|-----------------|-----------------|-----------------|
G|-----------------|-6-6-6-6-6-6-6-6-|-7-7-7-7-7-7-7-7-|-----------------|
D|-4-4-4-4-4-4-4-4-|-6-6-6-6-6-6-6-6-|-7-7-7-7-7-7-7-7-|-7-7-7-6-6-6-6-6-|
A|-4-4-4-4-4-4-4-4-|-4-4-4-4-4-4-4-4-|-5-5-5-5-5-5-5-5-|-7-7-7-6-6-6-6-6-|
D|-4-4-4-4-4-4-4-4-|-----------------|-----------------|-7-7-7-6-6-6-6-6-|
   * * * * * * * *   * * * * * * * *   * * * * * * * *   * * * * * * * *

e|-----------------|-----------------|-----------------|-----------------|
B|-----------------|-----------------|-----------------|-----------------|
G|-----------------|-6-6-6-6-6-6-6-6-|-7-7-7-7-7-7-7-7-|-----------------|
D|-4-4-4-4-4-4-4-4-|-6-6-6-6-6-6-6-6-|-7-7-7-7-7-7-7-7-|-7-7-7-6-6-6-6-6-|
A|-4-4-4-4-4-4-4-4-|-4-4-4-4-4-4-4-4-|-5-5-5-5-5-5-5-5-|-7-7-7-6-6-6-6-6-|
D|-4-4-4-4-4-4-4-4-|-----------------|-----------------|-7-7-7-6-6-6-6-6-|
   * * * * * * * *   * * * * * * * *   * * * * * * * *   * * * * * * * *

VERSE
e|-----------------|-----------------|-----------------|-----------------|
B|-----------------|-----------------|-----------------|-----------------|
G|-----------------|-----------------|-7-7-7-7-7-7-7-7-|-----------------|
D|-7-7-7-7-7-7-7-7-|-6-6-6-6-6-6-6-6-|-7-7-7-7-7-7-7-7-|-7-7-7-6-6-6-7-7-|
A|-7-7-7-7-7-7-7-7-|-6-6-6-6-6-6-6-6-|-5-5-5-5-5-5-5-5-|-7-7-7-6-6-6-7-7-|
D|-7-7-7-7-7-7-7-7-|-6-6-6-6-6-6-6-6-|-----------------|-7-7-7-6-6-6-7-7-|

e|-----------------|-----------------|-----------------|-----------------|
B|-----------------|-----------------|-----------------|-----------------|
G|-----------------|-----------------|-7-7-7-7-7-7-7-7-|-----------------|
D|-7-7-7-7-7-7-7-7-|-6-6-6-6-6-6-6-6-|-7-7-7-7-7-7-7-7-|-7-7-7-6-6-6-7-7-|
A|-7-7-7-7-7-7-7-7-|-6-6-6-6-6-6-6-6-|-5-5-5-5-5-5-5-5-|-7-7-7-6-6-6-7-7-|
D|-7-7-7-7-7-7-7-7-|-6-6-6-6-6-6-6-6-|-----------------|-7-7-7-6-6-6-7-7-|

PRE-CHORUS (REPEAT)
e|-----------------|-----------------|-----------------|-----------------|
B|-----------------|-----------------|-----------------|-----------------|
G|-----------------|-6-6-6-6-6-6-6-6-|-7-7-7-7-7-7-7-7-|-----------------|
D|-4-4-4-4-4-4-4-4-|-6-6-6-6-6-6-6-6-|-7-7-7-7-7-7-7-7-|-7-7-7-6-6-6-6-6-|
A|-4-4-4-4-4-4-4-4-|-4-4-4-4-4-4-4-4-|-5-5-5-5-5-5-5-5-|-7-7-7-6-6-6-6-6-|
D|-4-4-4-4-4-4-4-4-|-----------------|-----------------|-7-7-7-6-6-6-6-6-|

e|-----------------|-----------------|-----------------|-----------------|
B|-----------------|-----------------|-----------------|-----------------|
G|-----------------|-6-6-6-6-6-6-6-6-|-7-7-7-7-7-7-7-7-|-----------------|
D|-4-4-4-4-4-4-4-4-|-6-6-6-6-6-6-6-6-|-7-7-7-7-7-7-7-7-|-7-7-7-6-6-6-6-6-|
A|-4-4-4-4-4-4-4-4-|-4-4-4-4-4-4-4-4-|-5-5-5-5-5-5-5-5-|-7-7-7-6-6-6-6-6-|
D|-4-4-4-4-4-4-4-4-|-----------------|-----------------|-7-7-7-6-6-6-6-6-|

CHORUS
e|-----------------|-----------------|-----------------|-----------------|
B|-----------------|-----------------|-----------------|-----------------|
G|-7-7-7-7-7-7-7-7-|-----------------|-7-7-7-7-7-7-7-7-|-----------------|
D|-7-7-7-7-7-7-7-7-|-7-7-7-7-2-2-2-2-|-7-7-7-7-7-7-7-7-|-7-7-7-7-2-2-2-2-|
A|-5-5-5-5-5-5-5-5-|-7-7-7-7-2-2-2-2-|-5-5-5-5-5-5-5-5-|-7-7-7-7-2-2-2-2-|
D|-----------------|-7-7-7-7-2-2-2-2-|-----------------|-7-7-7-7-2-2-2-2-|

e|-----------------|-----------------|-----------------|-----------------|
B|-----------------|-----------------|-----------------|-----------------|
G|-7-7-7-7-7-7-7-7-|-----------------|-----------------|-----------------|
D|-7-7-7-7-7-7-7-7-|-7-7-7-7-2-2-2-2-|-4-4-4-4-4-4-4-4-|-2-2-2-2-2-2-2-2-|
A|-5-5-5-5-5-5-5-5-|-7-7-7-7-2-2-2-2-|-4-4-4-4-4-4-4-4-|-2-2-2-2-2-2-2-2-|
D|-----------------|-7-7-7-7-2-2-2-2-|-4-4-4-4-4-4-4-4-|-2-2-2-2-2-2-2-2-|

PRE-CHORUS (REPEAT)
e|-----------------|-----------------|-----------------|-----------------|
B|-----------------|-----------------|-----------------|-----------------|
G|-----------------|-6-6-6-6-6-6-6-6-|-7-7-7-7-7-7-7-7-|-----------------|
D|-4-4-4-4-4-4-4-4-|-6-6-6-6-6-6-6-6-|-7-7-7-7-7-7-7-7-|-7-7-7-6-6-6-6-6-|
A|-4-4-4-4-4-4-4-4-|-4-4-4-4-4-4-4-4-|-5-5-5-5-5-5-5-5-|-7-7-7-6-6-6-6-6-|
D|-4-4-4-4-4-4-4-4-|-----------------|-----------------|-7-7-7-6-6-6-6-6-|

e|-----------------|-----------------|-----------------|-----------------|
B|-----------------|-----------------|-----------------|-----------------|
G|-----------------|-6-6-6-6-6-6-6-6-|-7-7-7-7-7-7-7-7-|-----------------|
D|-4-4-4-4-4-4-4-4-|-6-6-6-6-6-6-6-6-|-7-7-7-7-7-7-7-7-|-7-7-7-6-6-6-----|
A|-4-4-4-4-4-4-4-4-|-4-4-4-4-4-4-4-4-|-5-5-5-5-5-5-5-5-|-7-7-7-6-6-6-----|
D|-4-4-4-4-4-4-4-4-|-----------------|-----------------|-7-7-7-6-6-6-----|

CHORUS
e|-----------------|-----------------|-----------------|-----------------|
B|-----------------|-----------------|-----------------|-----------------|
G|-7-7-7-7-7-7-7-7-|-----------------|-7-7-7-7-7-7-7-7-|-----------------|
D|-7-7-7-7-7-7-7-7-|-7-7-7-7-2-2-2-2-|-7-7-7-7-7-7-7-7-|-7-7-7-7-2-2-2-2-|
A|-5-5-5-5-5-5-5-5-|-7-7-7-7-2-2-2-2-|-5-5-5-5-5-5-5-5-|-7-7-7-7-2-2-2-2-|
D|-----------------|-7-7-7-7-2-2-2-2-|-----------------|-7-7-7-7-2-2-2-2-|

e|-----------------|-----------------|-----------------|-----------------|
B|-----------------|-----------------|-----------------|-----------------|
G|-7-7-7-7-7-7-7-7-|-----------------|-----------------|-----------------|
D|-7-7-7-7-7-7-7-7-|-7-7-7-7-2-2-2-2-|-4-4-4-4-4-4-4-4-|-4-4-4-4-4-4-4-4-|
A|-5-5-5-5-5-5-5-5-|-7-7-7-7-2-2-2-2-|-4-4-4-4-4-4-4-4-|-4-4-4-4-4-4-4-4-|
D|-----------------|-7-7-7-7-2-2-2-2-|-4-4-4-4-4-4-4-4-|-4-4-4-4-4-4-4-4-|

e|-----------------|-----------------|-----------------|-----------------|
B|-----------------|-----------------|-----------------|-----------------|
G|-7-7-7-7-7-7-7-7-|-----------------|-7-7-7-7-7-7-7-7-|-----------------|
D|-7-7-7-7-7-7-7-7-|-7-7-7-7-2-2-2-2-|-7-7-7-7-7-7-7-7-|-7-7-7-7-2-2-2-2-|
A|-5-5-5-5-5-5-5-5-|-7-7-7-7-2-2-2-2-|-5-5-5-5-5-5-5-5-|-7-7-7-7-2-2-2-2-|
D|-----------------|-7-7-7-7-2-2-2-2-|-----------------|-7-7-7-7-2-2-2-2-|

e|-----------------|-----------------|-----------------|-----------------|
B|-----------------|-----------------|-----------------|-----------------|
G|-7-7-7-7-7-7-7-7-|-----------------|-----------------|-----------------|
D|-7-7-7-7-7-7-7-7-|-7-7-7-7-2-2-2-2-|-4-4-4-4-4-4-4-4-|-2-2-2-2-2-2-2-2-|
A|-5-5-5-5-5-5-5-5-|-7-7-7-7-2-2-2-2-|-4-4-4-4-4-4-4-4-|-2-2-2-2-2-2-2-2-|
D|-----------------|-7-7-7-7-2-2-2-2-|-4-4-4-4-4-4-4-4-|-2-2-2-2-2-2-2-2-|

END ON
|-7-|
|-7-|
|-7-|






Like us on Facebook