Untitled 1 Bass Tab - Keane






Title: Untitled 1
Band: Untitled 1
Autor: Erickson 'Sony' Lagos
Standard tuning: G D A E
 Really nice wintry-song, it goes:

 Intro with piano

 After: Till the Chorus
        G------------------------------------------------------------|
        D------------------------------------------------------------|
        A-2-5-2-4-1-5-2-4-5-1----------------------------------------|
        E--------------------5-3-1/5---------------------------------|

Chorus: The Wind...

        G-11--13--15*------------------------------------------------|
        D------------------------------------------------------------| X 4
        A------------------------------------------------------------|
        E------------------------------------------------------------|


Verse

Chorus

Ending: Now you can down the sound, Lower.

        G-------------------------------------------------------------|
        D-------------------------------------------------------------|
        A-------------------------------------------------------------|
        E-8-10-7-9-6-10-7-9-10-6-5-3-1--------------------------------|

           That's all, I hope you like it, this song tuch deep in my soul...






Like us on Facebook