With Or Without You Tab - Keane






-------------------------------------------------------------------------------
     With Or Without You - Keane
-------------------------------------------------------------------------------
Tabbed by: Andre Lopes
Email: the.sarcasmo[at]gmail.com

Tuning: Standard

Very nice cover, from the new Radio 1 Live Lounge CD. A Xylophone type instrument plays
rhythm through but I've transcribed it for guitar.. a little hand shaker also comes in
three quarters of the way through. They basically arpegiate the chords, you can either
this or just strum if you're lazy :P

Apologies for the dodgy position of the chords at times, it's hard to get the chord
over done positioning properly when you're doing this in TextEdit.


      D        ABmG
e|---------2------------------------------------------------------------------------|
B|-------3--3------------2---------------------3------------------------------------|
G|-----2-----2---------2--2-----------------4--4---------------4--------------------|
D|---0----------------2-----2--------------4-----4------------5--5------------------|
A|-------------------0---------------------2-------------------5-----5--------------|
E|-------------------------------------------------------------3--------------------|

Intro: D A Bm G

Verse 1
DABmGD
See the stone set in your eyes. See the thorn twist in your side.

ABmG
 I'll wait for you

Verse 2
DABmG
Sleight of hand and twist of fate. On a bed of nails she makes me wait

DABmG
And I'll wait without you

Chorus
DA
With or without you

BmG
With or without you


Verse 3
DABmG
Through the storm we reach the shore. You give it all but I want more

DABmG
And Im waiting for you

Chorus
DA
With or without you

BmG
With or without you I'll

DABmG
I can't live, with or without you

DABmG

Bridge
DABmG
And you give yourself away. And you give yourself away

DABmG
  And you give. And you give. And you give yourself away


Verse 4
DABmG
My hands are tied. My body bruised, shes got me with

DABmG
Nothing to win and. Nothing left to lose

DABmG
And you give yourself away. And you give yourself away

DABmG
  And you give. And you give. And you give yourself away

Chorus
DA
With or without you

BmG
With or without you I

DABmG
I can't live, with or without you

Outro
DABmG
OohhhhOohhh

DABmGDA
OohhhhOohhhhhhhhhhhh

BmG
With or without you

| /  slide up
|   slide down
| h  hammer-on
| p  pull-off
| ~  vibrato
| +  harmonic
| x  Mute note
===============================================================================






Like us on Facebook