Baby Come Home Tab - Kid Rock






Song-Baby Come Home
Artist-Kid Rock
Tabber-Funky6Gangzta- FUNK TRAVELER

Kid Rock Plays on slide guitar

d|--------------|
b|--------------|
g|-0-0-0-5-3-0--|  Open-G tuning
d|-0-0-0-5-3-0--|
g|-0-0-0-5-3-0--|
D|--------------|


Kenny Olsen part

e|--------------|
b|--------------|
g|-2-2-2-7-5-2--|
D|-2-2-2-7-5-2--|
A|-0-0-0-5-3-0--|
E|--------------|






Like us on Facebook