Only God Knows Why Bass Tab - Kid Rock






Only God Knows Why
Kid Rock
Devil Without a Cause
tabbed by john white
zjaws04@aol.com

    main verse
G---------------------|-----
D---------------------|-----
A------2--0-----------|-----
E---0--------0--------|-----


       right before chorus                              back to verse

G------------------------------------------------------------------------|
D------------------------------------------------------------------------|
A---7--7--7--7--7--6--6--4--4--4--4--------------4--4--4--4--0--0--0--0--|
E------------------------------------------2--2--2--2--------------------|






Like us on Facebook