So Hott (ver2) Tab - Kid Rock






-------------------------------------------------------------------------------
     Kid Rock - So Hott
-------------------------------------------------------------------------------
Tabbed by:Pete Griffin

Tuning:DROP D (DADGBE)

This is just my interpretation of how this song is played.  
I tabbed this by ear, however i believe it to be pretty accurate. 
This tab contains the main rhythm parts, but also the solo, 
which i haven't seen on any other tabs.  Have fun !

Intro/verse
e|----------------------------------------------------------|
B|----------------------------------------------------------|
G|----------------------------------------------------------|
D|-0--3--0--5b6r5--0--3--0--0-0-3-0-------------------------|
A|-0--3--0--5b6r5--0--3--0--0-0-3-0-------------------------|
E|-0--3--0--5b6r5--0--3--0--0-0-3-0-------------------------|


e|----------------------------------------------------------|
B|----------------------------------------------------------|
G|----------------------------------------------------------|
D|-0--3--0--5b6r5--0--3--0--x-x-x-x-x-----------------------|
A|-0--3--0--5b6r5--0--3--0--x-x-x-x-x-----------------------|
E|-0--3--0--5b6r5--0--3--0--x-x-x-x-x-----------------------|

Rhythm 2
e|-------------------------------------------------------|
B|-------------------------------------------------------|
G|-------------------------------------------------------|
D|-0-3-0-5b6r5-3-0--0-3-5-5b6r5-3------------------------|
A|-0-3-0-5b6r5-3-0--0-3-5-5b6r5-3------------------------|
E|-0-3-0-5b6r5-3-0--0-3-5-5b6r5-3------------------------|

e|-------------------------------------------------------|
B|----10-12-12b13r12-10-------10-12-12b13r12-10----------| |
G|----10-12-12b13r12-10-------10-12-12b13r12-10----------| |
D|-12-------------------12-12----------------------------| |
A|-------------------------------------------------------| |
E|-------------------------------------------------------| |
                                     lead to go with rhythm 2

e|-------------------------------------------------------| |
B|----10-12-12b13r12-10--13------------------------------| |
G|----10-12-12b13r12-10--12b14---------------------------| |
D|-12----------------------------------------------------| |
A|-------------------------------------------------------| |
E|-------------------------------------------------------| /


Chorus
e|----0----------------------0------------------------------|
B|----3----------------------3------------------------------|
G|----2-----------5-5--------2-----------5------------------|
D|-0--0-0-2-3-3-3-5-5-5-3--0-0-0-2-3-3-3-5-5-3--------------|
A|-0----0-2-3-3-3-----5-3--0---0-2-3-3-3---5-3--------------|
E|-0----0-2-3-3-3-----5-3--0---0-2-3-3-3---5-3--------------|


Solo
e|-17--17--17-----------------------------------------------|
B|-20b-20b-20b----------------------------------------------|
G|-------------17b19-19-17----------------------------------|
D|-------------------------19-18-15-17-15-------------------|
A|----------------------------------------------------------|
E|----------------------------------------------------------|

e|-----------------------------------------------------------|
B|-----------------------------------------------------------|
G|---------------------------10h12p10------------------------|
D|---10-10-10-10-10-10-10/12---------12-10-------------------|
A|-12--------------------------------------12-108-10p8-5h8-5|
E|-----------------------------------------------------------|

e|----------------------------------------------------------|
B|--------------------------------10-13-----10-13-----10----|
G|------------------5-7-5-----12b-------12b-------12b-------|
D|----3-5-5b6r5-5/7-----------------------------------------|
A|-3h5------------------------------------------------------|
E|----------------------------------------------------------|

e|--------------------------------10-----------10-----------|
B|-----------------------------------10-13b15-----13p10-----|
G|-12br12-10----10----10-12-12b14-----------------------12b-|
D|-----------12----12---------------------------------------|
A|----------------------------------------------------------|
E|----------------------------------------------------------|

e|----------------------------------------------------------|
B|-10---------------------------------------13--------------|
G|----12-10----12-10-----------------10--14----1412-10-----|
D|----------12-------12-10-10h12-----12---------------------|
A|----------------------------------------------------------|
E|----------------------------------------------------------|

e|----------22---------------------------------------------|
B|----20b22----20br20-22-20--------------------------------|
G|-10-----------------------19-----------------------------|
D|-12------------------------------------------------------|
A|---------------------------------------------------------|
E|---------------------------------------------------------|


Outro
e|----0----------------------------------------------------|
B|----3----------------------------------------------------|
G|----2----------------------------------------------------|
D|-0--0-0--9--10--12--14--12--10--9------------------------|
A|-0----0--7--8---10--12--10--8---7------------------------|
E|-0----0--------------------------------------------------|


Order

Intro x4
Rhythm 2 x4
Chorus x2
verse (intro a couple of times)
Chorus x2
Intro x2
Verse (intro a couple of times)
Chorus x2
Solo
Chorus x4
Outro

| /  slide up
|   slide down
| h  hammer-on
| p  pull-off
| ~  vibrato
| +  harmonic
| x  Mute note

Hope you enjoyed learning this cool song, I'd appreciate it if you 
could rate and comment if you liked the tab, thx!!
============================================================================






Like us on Facebook