Intellect Tab - Killing Joke






INTELLECT. Album: Democracy (1996)
Updated Jan 23 2006

INTRO Let ring

D-------------------------|
A-14-14-14-14-14-14-14-14-|
F-12-12-12-12-12-12-12-12-|
C-------------------------|
G-------------------------|
D-------------------------|

VERSES / MAIN RIFF. G string = palm-muted, let ring the other strings.

Play this one X 3

D-------------------------------|
A-------------------------7-7---|
F-------------------------8---8-|
C-------------------------------|
G(6)6-6-6-7-7-7-7-6-6-4-4-------|
D-------------------------------|

 Then this one (X 1) Let ring

D-12--11------------------|
A-11--11-11-12-11--14-14--|
F--------11-11-11--11-11--|
C-------------------------|
G-------------------------|
D-------------------------|

CHORUS.Let ring

D-12--11----------------------|
A-11--11-11-12-11-11--14--14--|
F--------11-11-11-11--11--11--|
C-----------------------------|
G-----------------------------|
D-----------------------------|

ĂŽnscrie-te la newsletter


Like us on Facebook