Lets All Go To The Fire Dances Tab - Killing Joke






LET'S ALL GO (to the fire dances). Album: Fire Dances (1983)
Updated :jan. 23 2006

A lot of changes in this song, which reminds me the way Eighties is played....
Listen to the song to feel changes and the way Geordie mute the chords.

INTRO Let ring

D-----0----0----------------------|
A--5----4-----2---0----0----------|
F--------------------3---3--3--3--|
C------------------------4--4--4--|
G------------------------4--4--4--|
D---------------------------------|

RIFF 1

D--0--------------------0----------------0-----0--------------|
A--0--------------------0-------------5-----4-----2---0----0--|
F----3-3---3-3-3-3-3-3----3-3---3-3----------------------3----|
C----4-4---4-4-4-4-4-4----4-4---4-4---------------------------|
G----4-4---4-4-4-4-4-4----4-4---4-4---------------------------|
D-------------------------------------------------------------|

RIFF 2 (x4)...Then play this one

D--0-------------------)-----0-----0--------------|
A--0-------------------)--5-----4-----2---0----0--|
F----3-3---3-3-3-3-3-3-)---------------------3----|
C----4-4---4-4-4-4-4-4-)--------------------------|
G----4-4---4-4-4-4-4-4-)--------------------------|
D----------------------)--------------------------|

RIFF 3 As played before chorus

D----------------------------------------------------------------------------|
A----------------------------------------------------------------0---0-------|
F-----3-3-3-3-3-3-----3-3-3-3-3-3-----3-3-3----3-3-3----3-3-3--4---3-----0---|
C-----4-4-4-4-4-4-----4-4-4-4-4-4-----4-4-4----4-4-4----4-4-4----------4---5-|
G-----4-4-4-4-4-4-----4-4-4-4-4-4-----4-4-4----4-4-4----4-4-4----------------|
D-2-2-------------2-2-------------2-2-------2-2------2-2---------------------|


CHORUS Let ring

D-----------------------------------|
A-----------------------------------|
F-----------------------0-----------|
C-----------------------------0---0-|
G-----0----0---0---0--3---3^4---5---|
D--3-----3---2---2------------------|

BREAK (x8) Let ringLet ring

D--------------------------------------)-7--7--7--7--7--7--7--7----|
A--------------------------------------)-8----8--8--8--8--8--8--8--|
F---------------------11^13-13-13---11-)---------------------------|
C------9----11^14-14---0-----0---0---0-)---------------------------|
G----11---0-0------0-------------------)---------------------------|
D-0------------------------------------)---------------------------|

ĂŽnscrie-te la newsletter


Like us on Facebook