Primitive Tab - Killing Joke






KILLING  JOKE : Primitive. Album : Killing Joke (1980)
(played with standard E tuning).

MAIN RIFF. Let ring

E-0--0---0--0--0-0-0-0-0-0-0-0--0---0--0--0-0-0-0-0-0-0--|
B-0--0---0--0--0-0-0-0-0-0-0-0--0---0--0--0-0-0-0-0-0-0--|
G-1--1---1--1--4-4-6-6-3-3-4-1--1---1--1--4-4-6-6-3-3-4--|
D-2--2---2--2----------------2--2---2--2-----------------|
A-2--2---2--2----------------2--2---2--2-----------------|
E-0--0---0--0----------------0--0---0--0-----------------|

BREAK. Let ring...

E----------------------------------------------|
B----------------------------------------------|
G-2--2---2--1--2-2--2--2--------------4-4-5-x--|
D-2--2---2--1--2-2--2--2--5-5-5-4-4-4-4-4-5-x--|
A-0--0---0--0--0-0--0--0--5-5-5-4-4-4-2-2-3-x--|
E-------------------------3-3-3-2-2-2----------|

ĂŽnscrie-te la newsletter


Like us on Facebook