Total Invasion Tab - Killing Joke






*standard tuning
Riff 1
e-----------------------------------------------------------------------
b-----------------------------------------------------------------------
g-----------------------------------------------------------------------
d-555-------------------------------------------------------------------
a-555-4-4-4-2-2-2-2-3-3-3-5-5-5-5---------------------------------------
e-333-2-2-2-0-0-0-0-1-1-1-3-3-3-3---------------------------------------
p.m............................... then repeat w/out palm muting listen for it in the song.

bridge
e--------------------------------------------------------------------------
b--------------------------------------------------------------------------
g--------------------------------------------------------------------------
d-555----------------------------------------------------------------------
a-555-4-4-4-2-2-2-4-4-4-2-2-2-4-4-4-2-2-2-1-33333-5-5-5--------------------
e-333-2-2-2-0-0-0-2-2-2-0-0-0-2-2-2-0-0-0-1-11111-3-3-3--------------------

Riff 2
e-----------------------------
b-----------------------------
g-----------------------------
d----------7------------7-----        
a-9-999--9-5-7-5-555--5-5-7---
e-7-777--7---5-3-333--3---5---                             
  repeat x1 and the start Riff again

ĂŽnscrie-te la newsletter


Like us on Facebook