Legal Kill Tab - Kings X




King's X
Legal Kill
from "Faith Hope Love"
Tabbed by Jason Parton
jasons_groovemachine@yahoo.com

This it the first 'professional' tab that I am submitting.
I'm not going to promise that its right on, but its pretty close.
I've yet to be able to find a good version of this tab that
is readable so I hope this helps everyone else out a bit on that.

No rhythms, but its pretty easy to figure out. 


Tuning... DADF#AD


Intro/Chorus

D |---------|-------|-------|---------|-------|------||
A |---------|-------|-------|---------|-------|------||
F#|-12--10--|-8--7--|-5--3--|-10--8---|-5--3--|-x--3-||
D |-x---x---|-x--x--|-x--x--|-x---x---|-x--x--|-x--x-||
A |-12--10--|-9--9--|-5--5--|-10--10--|-5--5--|-2--3-||
D |-12--10--|-9--9--|-5--5--|-10--10--|-5--5--|-2--3-||


Verse

D |-------------|----------|----------|----------------||
A |-------------|----------|----------|----------------||
F#|-0--1--1--0--|-0--5--3--|-8--7--5--|-5--7--8--1--0--||
D |-0--0--0--0--|-x--x--x--|-x--x--x--|-x--x--x--x--x--||
A |-0--0--2--0--|-4--5--5--|-9--7--5--|-5--7--9--2--4--||
D |-0--0--0--0--|-4--5--5--|-9--7--5--|-5--7--9--2--4--||


D |-------------|--------------|------------|------------||
A |-------------|--------------|------------|------------||
F#|-5--7--8--10-|-12--10--8--7-|-5--3--5--7-|-7--0--7--5-||
D |-x--x--x--x--|-x---x---x--x-|-x--x--x--x-|-x--x--x--x-||
A |-5--7--9--10-|-12--10--9--7-|-5--5--5--7-|-7--5--7--7-||
D |-5--7--9--10-|-12--10--9--7-|-5--5--5--7-|-7--5--7--7-||
                \   Played again behind the solo        //


Good luck.

ĂŽnscrie-te la newsletter


Join the ranks ! LIKE us on Facebook