Modern Day Delilah Tab - Kiss






h : hammer on ;
 : slide down .

eb|---------------------------------------------------------------------------|
Bb|---------------------------------------------------------------------------|
Gb|------------------------5--------------------7--------------------5--------|
Db|------------------------5--------------------7--------------------5--------|
Ab|-10----------5h7---5h7----7-------5h7---5h7----7-------5h7---5h7----7-----|
Eb|-10----0--0------------------0--0-----------------0--0-----------------0--|

eb|---------------------------------------------------------------------------|
Bb|------------------------------------3--3-----------------------------------|
Gb|-----7-------------7----------------2--2--2--------------------------------|
Db|-----7-------------7-----5----------0--0--2--------------------------------|
Ab|-5h7----7------5h7----7--5----------------0--------------------------------|
Eb|-----------0-------------3-------------------------------------------------|

It's just the intro, but these riffs are using all along the song. I hope you'll enjoy !






Like us on Facebook