Throw Me Away (ver2) Bass Tab - Korn






INTRO

 G [-----------------------------------------]
 D [-----------------------------------------]
 A [-----------------------------------------]
 E [-----------------------------------------]
 B [--1-111-1--4-4-444-4--6-6-666--999-8888--]



 G [------------------------------------------]
 D [------------------------------------------]
 A [------------------------------------------]
 E [------------------------------------------]
 B [--1-111-1--4-4-4444-4--6-6-666--999-8888--]




VERSE


 G [-------------------------------------------]
 D [-------------------------------------------]
 A [-------------------------------------------]
 E [--------------------------------666--555---]
 B [--1-111-1--4-4-444-4--6-6-666-6------------]


 G [-------------------------------------------]
 D [-------------------------------------------]
 A [-------------------------------------------]
 E [--------------------------------666--555---]
 B [--1-111-1--4-4-444-4--6-6-666-6------------]


CHORUS

 G [--------------------------------------------------]
 D [--------------------------------------------------]
 A [--------------------------------------------------]
 E [--------------------------0--000-0-0-0--333--222--]
 B [--1-111-1-1-1-3-333-3-3-3-------------------------]




 G [--------------------------------------------------]
 D [--------------------------------------------------]
 A [--------------------------------------------------]
 E [--------------------------0--000-0-0-0--333--222--]
 B [--1-111-1-1-1-3-333-3-3-3-------------------------]


FILL



 G [------------------]
 D [------------------]
 A [------------------]
 E [------------------]
 B [--1--111-1-11-----]




VERSE


 G [-------------------------------------------]
 D [-------------------------------------------]
 A [-------------------------------------------]
 E [--------------------------------666--555---]
 B [--1-111-1--4-4-444-4--6-6-666-6------------]


 G [-------------------------------------------]
 D [-------------------------------------------]
 A [-------------------------------------------]
 E [--------------------------------666--555---]
 B [--1-111-1--4-4-444-4--6-6-666-6------------]


CHORUS

 G [--------------------------------------------------]
 D [--------------------------------------------------]
 A [--------------------------------------------------]
 E [--------------------------0--000-0-0-0--333--222--]
 B [--1-111-1-1-1-3-333-3-3-3-------------------------]




 G [--------------------------------------------------]
 D [--------------------------------------------------]
 A [--------------------------------------------------]
 E [--------------------------0--000-0-0-0--333--222--]
 B [--1-111-1-1-1-3-333-3-3-3-------------------------]




FILL



 G [------------------]
 D [------------------]
 A [------------------]
 E [------------------]
 B [--1--111-1-11-----]



BRIDGE



 G [--------------------------------------------]
 D [--------------------------------------------] 
 A [--------------------------------------------]
 E [----------------3-3-3--2-22-2-22------------]
 B [-5-55-5-55-5-55------------------3-33-3-33--]



CHORUS

 G [--------------------------------------------------]
 D [--------------------------------------------------]
 A [--------------------------------------------------]
 E [--------------------------0--000-0-0-0--333--222--]
 B [--1-111-1-1-1-3-333-3-3-3-------------------------]




 G [--------------------------------------------------]
 D [--------------------------------------------------]
 A [--------------------------------------------------]
 E [--------------------------0--000-0-0-0--333--222--]
 B [--1-111-1-1-1-3-333-3-3-3-------------------------]

ĂŽnscrie-te la newsletter


Join the ranks ! LIKE us on Facebook