Throw Me Away Intro Tab - Korn






----------------------------------------------------------------------------
     Throw me away - MTV unplugged - KoRn
----------------------------------------------------------------------------
Tabbed by:Javier Garca
Email:Javgar3@hotmail.com

Tuning:e,B,G,D,A,E.

e|-------------------------------------------------------------------------I
B|-----------2-2----------------3-3----------------4-4---------------------I
G|-------------------------------------------------------------------------I
D|-------3--------3---------4--------4---------5---------5-----------------I
A|----4-------------4----5-------------5----6--------------6---------------I
E|-------------------------------------------------------------------------I

e|-------------------------------------------------------------------------I
B|-------------5-----------6-----------------------------------------------I
G|-------------------------------------------------------------------------I
D|--------6------------7---------------------------------------------------I
A|-----7------------8------------------------------------------------------I
E|-------------------------------------------------------------------------I

REPEAT ALL INTRO AND THE VERSE.

ĂŽnscrie-te la newsletter


Join the ranks ! LIKE us on Facebook