Trash (ver3) Tab - Korn






Artist:KoRn
Song:Trash
Tabbed By:kornflipsk8er(stan_holland@hotmail.com)
Tuning:6 String-DADGBE

INTRO/CHORUS
GTR 1
|----------------------------------------------------|
|----------------------------------------------------|
|-------2---2--------2---2--------2---2--------2---2-|
|-----2---2--------2---2--------2---2--------2---2---|
|---0------------0------------0------------0---------|
|-0------------1------------2------------1-----------|

GTR 2
|-0--------3--1--0---0---------3--5-------------|
|------3------------3------3---------6---5----5-|
|-----------------------------------------------|
|-----------------------------------------------|
|-----------------------------------------------|
|-----------------------------------------------|


VERSE

|----21----------19-|----21-----------19-|
|-------20----19----|-------20--19-------|
|-------------------|--------------------|
|-21-------21-------|-21-----------21----| 4X
|-------------------|--------------------|
|-------------------|--------------------|


PRE-CHORUS

|------------------------|------------------------|
|------------------------|------------------------|
|------------------------|------------------------|
|------------------------|------------------------| 2X
|-2-0-2--2-2--0-2-0-2--3-|-2-0-2--2-2--0-2-0-2--1-|
|-2-0-2--2-2--0-2-0-2--1-|-2-0-2--2-2--0-2-0-2--1-|


CHORUS
GTR 1
|----------------------------------------------------|
|----------------------------------------------------|
|-------2---2--------2---2--------2---2--------2---2-|
|-----2---2--------2---2--------2---2--------2---2---|
|---0------------0------------0------------0---------|
|-0------------1------------2------------1-----------|
                                                          2X
GTR 2
|-0--------3--1--0---0---------3--5-------------|
|------3------------3------3---------6---5----5-|
|-----------------------------------------------|
|-----------------------------------------------|
|-----------------------------------------------|
|-----------------------------------------------|


VERSE

|----21----------19-|----21-----------19-|
|-------20----19----|-------20--19-------|
|-------------------|--------------------|
|-21-------21-------|-21-----------21----| 4X
|-------------------|--------------------|
|-------------------|--------------------|


PRE-CHORUS

|------------------------|------------------------|
|------------------------|------------------------|
|------------------------|------------------------|
|------------------------|------------------------| 2X
|-2-0-2--2-2--0-2-0-2--3-|-2-0-2--2-2--0-2-0-2--1-|
|-2-0-2--2-2--0-2-0-2--1-|-2-0-2--2-2--0-2-0-2--1-|


CHORUS
GTR 1
|----------------------------------------------------|
|----------------------------------------------------|
|-------2---2--------2---2--------2---2--------2---2-|
|-----2---2--------2---2--------2---2--------2---2---|
|---0------------0------------0------------0---------|
|-0------------1------------2------------1-----------|
                                                          2X
GTR 2
|-0--------3--1--0---0---------3--5-------------|
|------3------------3------3---------6---5----5-|
|-----------------------------------------------|
|-----------------------------------------------|
|-----------------------------------------------|
|-----------------------------------------------|


BRIDGE
|------------------------|
|------------------------|
|------------------------|
|------------------------|  8X
|-2-0-2--2-2--0-2-0-2--1-|
|-2-0-2--2-2--0-2-0-2--1-|


CHORUS
GTR 1
|----------------------------------------------------|
|----------------------------------------------------|
|-------2---2--------2---2--------2---2--------2---2-|
|-----2---2--------2---2--------2---2--------2---2---|
|---0------------0------------0------------0---------|
|-0------------1------------2------------1-----------|
                                                          4X
GTR 2
|-0--------3--1--0---0---------3--5-------------|
|------3------------3------3---------6---5----5-|
|-----------------------------------------------|
|-----------------------------------------------|
|-----------------------------------------------|
|-----------------------------------------------|

QUESTIONS OR COMMENT?E-MAIL ME!ENJOI!

ĂŽnscrie-te la newsletter


Join the ranks ! LIKE us on Facebook