Twisted Transistor Tab - Korn






Band  - Korn
Album - Souvenir of Sadness
____________________________________________________________________________



KoRn - twisted transistor - Souvenir of Sadness

Tabbed by Egg (kornrockerten@yahoo.com)
Tuning : 7 String Tuned Low to High (A D G C F a d)


Intro:(guitar 1)
d|----------------------------------|
a|----------------------------------|
F|----------------------------------|
C|----------------------------------| 
G|----3b4h3-----3---------3h4-------|
D|----------------------------------|
A|-00-------00-------00-------------|
   ..       ..       ..

verse:(guitars 1&2)
d|----------------------------------|
a|----------------------------------|
F|----------------------------------|
C|----------------------------------|(guitar one starts off then guitar 2)
G|----3b4h3-----3---------3h4-------|
D|----------------------------------|
A|-00-------00-------00-------------|
   ..       ..       ..  

Pre-chorus1:(guitars 1&2)
d|---------------------------------------|
a|---------------------------------------|
F|---------------------------------------|
C|---------------------------------------|
G|-----5--------6--------55-------5-----|
D|-----3--------4--------43-------3-----|
A|-00-------00-------00---------00-------|
   ..       ..       ..         ..

Pre-Chorus2 :( guitars 1&2)
d|---------------------------------------|
a|---------------------------------------|
F|---------------------------------------|
C|---------------------------------------|
G|---5x-6x-7x-8x-------------------------|
D|---5x-6x-7x-8x-------------------------|
A|---3x-4x-5x-6x-------------------------|
   
d|---------------------------------------|
a|---------------------------------------|
F|---------------------------------------|
C|---------------------------------------|( play this after Jon stops)
G|---5x-6x-7-7x--------------------------|
D|---5x-6x-7-7x--------------------------|
A|---3x-4x-5-5x--------------------------|

Chorus :( guitars 1&2)
  
d|----------------------------------|
a|----------------------------------|
F|----------------------------------|
C|----------------------------------|
G|----3b4h3-----3---------3h4-------|
D|----------------------------------|
A|-00-------00-------00-------------|
   ..       ..       ..  

verse:(guitars 1&2)
d|----------------------------------|
a|----------------------------------|
F|----------------------------------|
C|----------------------------------|
G|----3b4h3-----3---------3h4-------|
D|----------------------------------|
A|-00-------00-------00-------------|
   ..       ..       ..  
Pre-chorus1:(guitars 1&2)
d|---------------------------------------|
a|---------------------------------------|
F|---------------------------------------|
C|---------------------------------------|
G|-----5--------6--------55-------5-----|
D|-----3--------4--------43-------3-----|
A|-00-------00-------00---------00-------|
   ..       ..       ..         ..

Pre-Chorus2 :( guitars 1&2)
d|---------------------------------------|
a|---------------------------------------|
F|---------------------------------------|
C|---------------------------------------|
G|---5x-6x-7x-8x-------------------------|
D|---5x-6x-7x-8x-------------------------|
A|---3x-4x-5x-6x-------------------------|
   
d|---------------------------------------|
a|---------------------------------------|
F|---------------------------------------|
C|---------------------------------------|( play this after Jon stops) 
G|---5x-6x-7-7x--------------------------|
D|---5x-6x-7-7x--------------------------|
A|---3x-4x-5-5x--------------------------|

Chorus :( guitars 1&2)  
d|----------------------------------|
a|----------------------------------|
F|----------------------------------|
C|----------------------------------|
G|----3b4h3-----3---------3h4-------|
D|----------------------------------|
A|-00-------00-------00-------------|
   ..       ..       ..  
Bridge1: guitar 1
d|----------------------------------|               
a|----------------------------------|
F|----------------------------------|
C|--------2222p111p00---------------|  
G|----------------------------------|
D|----------------------------------|
A|----0-0---------------------------|
      . .  
Fill 1: guitar 2
d|---------------------------------------|
a|---------------------------------------|
F|---------------------------------------| ("MUSIC TUNES, MUSIC TUNES" part)
C|---------------------------------------|
G|---5x-6x-7x-8x-------------------------|
D|---5x-6x-7x-8x-------------------------|
A|---3x-4x-5x-6x-------------------------| 

Bridge1: guitar 1
d|----------------------------------|               
a|----------------------------------|
F|----------------------------------|
C|--------2222p111p00---------------|   
G|----------------------------------|
D|----------------------------------|
A|----0-0---------------------------|
      . .  
Fill 1: guitar 2
d|---------------------------------------|
a|---------------------------------------|
F|---------------------------------------| ("MUSIC TUNES, MUSIC TUNES" part)
C|---------------------------------------|
G|---5x-6x-7x-8x-------------------------|
D|---5x-6x-7x-8x-------------------------|
A|---3x-4x-5x-6x-------------------------|

Bridge2: guitar 1             
d|----------------------------------|
a|------19--------------19------0---|
F|--21------21~-----21-----21~--3---|
C|----------------------------------|
G|----------------------------------|
D|----------------------------------|
A|----------------------------------|

Fill2:guitar 2
d|------------------------------------------|
a|--16161616---------16161616---------------|
F|----------17171717----------17171717------|
C|------------------------------------------|
G|------------------------------------------|
D|------------------------------------------|
A|------------------------------------------|

Bridge2: guitar 1             
d|----------------------------------|
a|------19--------------19------0---|
F|--21------21~-----21-----21~--3---|
C|----------------------------------|
G|----------------------------------|
D|----------------------------------|
A|----------------------------------|

Fill2:guitar 2
d|------------------------------------------|
a|--15151515----------15151515--------------|
f|-----------14141414----------14141414-----|
C|------------------------------------------|
G|------------------------------------------|
D|------------------------------------------|
A|------------------------------------------|

Bridge2: guitar 1             
d|----------------------------------|
a|------19--------------19------0---|
F|--21------21~-----21-----21~--3---|
C|----------------------------------|
G|----------------------------------|
D|----------------------------------|
A|----------------------------------|

Fill2:guitar 2
d|------------------------------------------|
a|--16161616---------16161616---------------|
F|----------17171717----------17171717------|
C|------------------------------------------|
G|------------------------------------------|
D|------------------------------------------|
A|------------------------------------------|

Chorus/outro
d|----------------------------------|
a|----------------------------------|
F|----------------------------------|
C|----------------------------------|
G|----3b4h3-----3---------3h4-------|
D|----------------------------------|
A|-00-------00-------00-------------|
   ..       ..       ..  


NOTE: this is my first tab I hope you guy's like it. It's an awesome song on a hopefully
awesome CD which comes out NoV.22. to Munkey, David, feildy, Jon, and Rob you guy's sound
great Keep it up. KoRn!

ĂŽnscrie-te la newsletter


Like us on Facebook